  0
SECTION
  2
HEADER
  9
$EXTMIN
 10
-0.496000
 20
-1.338000
  9
$EXTMAX
 10
14.513000
 20
8.171000
  9
$LIMMIN
 10
-0.496000
 20
-1.338000
  9
$LIMMAX
 10
14.513000
 20
8.171000
  9
$FILLMODE
 70
  1
  0
ENDSEC
  0
SECTION
  2
TABLES
  0
TABLE
  2
LTYPE
 70
  1
  0
LTYPE
  2
CONTINUOUS
 70
 64
  3
Solid line
 72
 65
 73
  0
 40
0.0
  0
ENDTAB
  0
TABLE
  2
LAYER
 70
 1
  0
LAYER
  2
0
 70
  0
 62
7
  6
CONTINUOUS
  0
LAYER
  2
gbo
 70
  0
 62
3
  6
CONTINUOUS
  0
LAYER
  2
gbs
 70
  0
 62
5
  6
CONTINUOUS
  0
LAYER
  2
gko
 70
  0
 62
9
  6
CONTINUOUS
  0
LAYER
  2
gm1
 70
  0
 62
1
  6
CONTINUOUS
  0
LAYER
  2
gm2
 70
  0
 62
1
  6
CONTINUOUS
  0
LAYER
  2
gpb
 70
  0
 62
8
  6
CONTINUOUS
  0
LAYER
  2
gpt
 70
  0
 62
1
  6
CONTINUOUS
  0
LAYER
  2
gto
 70
  0
 62
1
  6
CONTINUOUS
  0
ENDTAB
  0
TABLE
  2
STYLE
 70
  1
  0
STYLE
  2
STANDARD
 70
  0
 40
0.0
 41
1.0
 50
0.0
 71
  0
 42
0.2
  3
txt
  4

  0
ENDTAB
  0
ENDSEC
  0
SECTION
  2
BLOCKS
  0
BLOCK
  8
0
  2
D10
 70
64
 10
0.0
 20
0.0
  3
D10
  0
CIRCLE
  8
0
 10
0.000000
 20
0.000000
 40
0.005000
 0
ENDBLK
  8
0
  0
BLOCK
  8
0
  2
D11
 70
64
 10
0.0
 20
0.0
  3
D11
  0
CIRCLE
  8
0
 10
0.000000
 20
0.000000
 40
0.004000
 0
ENDBLK
  8
0
  0
BLOCK
  8
0
  2
D12
 70
64
 10
0.0
 20
0.0
  3
D12
  0
POLYLINE
  8
0
 66
1
 10
0.0
 20
0.0
 70
1
 40
0.0
 41
0.0
  0
VERTEX
  8
0
 10
-0.150000
 20
-0.050000
  0
VERTEX
  8
0
 10
0.150000
 20
-0.050000
  0
VERTEX
  8
0
 10
0.150000
 20
0.050000
  0
VERTEX
  8
0
 10
-0.150000
 20
0.050000
  0
SEQEND
  8
0
 0
ENDBLK
  8
0
  0
BLOCK
  8
0
  2
D13
 70
64
 10
0.0
 20
0.0
  3
D13
  0
CIRCLE
  8
0
 10
0.000000
 20
0.000000
 40
0.003000
 0
ENDBLK
  8
0
  0
BLOCK
  8
0
  2
D14
 70
64
 10
0.0
 20
0.0
  3
D14
  0
CIRCLE
  8
0
 10
0.000000
 20
0.000000
 40
0.003500
 0
ENDBLK
  8
0
  0
BLOCK
  8
0
  2
D15
 70
64
 10
0.0
 20
0.0
  3
D15
  0
POLYLINE
  8
0
 66
1
 10
0.0
 20
0.0
 70
1
 40
0.0
 41
0.0
  0
VERTEX
  8
0
 10
-0.187500
 20
-0.062500
  0
VERTEX
  8
0
 10
0.187500
 20
-0.062500
  0
VERTEX
  8
0
 10
0.187500
 20
0.062500
  0
VERTEX
  8
0
 10
-0.187500
 20
0.062500
  0
SEQEND
  8
0
 0
ENDBLK
  8
0
  0
BLOCK
  8
0
  2
D16
 70
64
 10
0.0
 20
0.0
  3
D16
  0
POLYLINE
  8
0
 66
1
 10
0.0
 20
0.0
 70
1
 40
0.0
 41
0.0
  0
VERTEX
  8
0
 10
-0.100000
 20
-0.047500
  0
VERTEX
  8
0
 10
0.100000
 20
-0.047500
  0
VERTEX
  8
0
 10
0.100000
 20
0.047500
  0
VERTEX
  8
0
 10
-0.100000
 20
0.047500
  0
SEQEND
  8
0
 0
ENDBLK
  8
0
  0
BLOCK
  8
0
  2
D17
 70
64
 10
0.0
 20
0.0
  3
D17
  0
POLYLINE
  8
0
 66
1
 10
0.0
 20
0.0
 70
1
 40
0.0
 41
0.0
  0
VERTEX
  8
0
 10
-0.062500
 20
-0.062500
  0
VERTEX
  8
0
 10
0.062500
 20
-0.062500
  0
VERTEX
  8
0
 10
0.062500
 20
0.062500
  0
VERTEX
  8
0
 10
-0.062500
 20
0.062500
  0
SEQEND
  8
0
 0
ENDBLK
  8
0
  0
BLOCK
  8
0
  2
D18
 70
64
 10
0.0
 20
0.0
  3
D18
  0
CIRCLE
  8
0
 10
0.000000
 20
0.000000
 40
0.010000
 0
ENDBLK
  8
0
  0
BLOCK
  8
0
  2
D19
 70
64
 10
0.0
 20
0.0
  3
D19
  0
CIRCLE
  8
0
 10
0.000000
 20
0.000000
 40
0.002000
 0
ENDBLK
  8
0
  0
BLOCK
  8
0
  2
D20
 70
64
 10
0.0
 20
0.0
  3
D20
  0
POLYLINE
  8
0
 66
1
 10
0.0
 20
0.0
 70
1
 40
0.0
 41
0.0
  0
VERTEX
  8
0
 10
-0.017500
 20
-0.017500
  0
VERTEX
  8
0
 10
0.017500
 20
-0.017500
  0
VERTEX
  8
0
 10
0.017500
 20
0.017500
  0
VERTEX
  8
0
 10
-0.017500
 20
0.017500
  0
SEQEND
  8
0
 0
ENDBLK
  8
0
  0
BLOCK
  8
0
  2
D21
 70
64
 10
0.0
 20
0.0
  3
D21
  0
CIRCLE
  8
0
 10
0.000000
 20
0.000000
 40
0.019500
 0
ENDBLK
  8
0
  0
BLOCK
  8
0
  2
D22
 70
64
 10
0.0
 20
0.0
  3
D22
  0
POLYLINE
  8
0
 66
1
 10
0.0
 20
0.0
 70
1
 40
0.0
 41
0.0
  0
VERTEX
  8
0
 10
-0.018500
 20
-0.019500
  0
VERTEX
  8
0
 10
0.018500
 20
-0.019500
  0
VERTEX
  8
0
 10
0.018500
 20
0.019500
  0
VERTEX
  8
0
 10
-0.018500
 20
0.019500
  0
SEQEND
  8
0
 0
ENDBLK
  8
0
  0
BLOCK
  8
0
  2
D23
 70
64
 10
0.0
 20
0.0
  3
D23
  0
CIRCLE
  8
0
 10
0.000000
 20
0.000000
 40
0.004000
 0
ENDBLK
  8
0
  0
BLOCK
  8
0
  2
D24
 70
64
 10
0.0
 20
0.0
  3
D24
  0
CIRCLE
  8
0
 10
0.000000
 20
0.000000
 40
0.004000
 0
ENDBLK
  8
0
  0
BLOCK
  8
0
  2
D25
 70
64
 10
0.0
 20
0.0
  3
D25
  0
CIRCLE
  8
0
 10
0.000000
 20
0.000000
 40
0.039500
 0
ENDBLK
  8
0
  0
BLOCK
  8
0
  2
D26
 70
64
 10
0.0
 20
0.0
  3
D26
  0
POLYLINE
  8
0
 66
1
 10
0.0
 20
0.0
 70
1
 40
0.0
 41
0.0
  0
VERTEX
  8
0
 10
-0.019500
 20
-0.018500
  0
VERTEX
  8
0
 10
0.019500
 20
-0.018500
  0
VERTEX
  8
0
 10
0.019500
 20
0.018500
  0
VERTEX
  8
0
 10
-0.019500
 20
0.018500
  0
SEQEND
  8
0
 0
ENDBLK
  8
0
  0
BLOCK
  8
0
  2
D27
 70
64
 10
0.0
 20
0.0
  3
D27
  0
CIRCLE
  8
0
 10
0.000000
 20
0.000000
 40
0.020000
 0
ENDBLK
  8
0
  0
BLOCK
  8
0
  2
D28
 70
64
 10
0.0
 20
0.0
  3
D28
  0
CIRCLE
  8
0
 10
0.000000
 20
0.000000
 40
0.003000
 0
ENDBLK
  8
0
  0
BLOCK
  8
0
  2
D29
 70
64
 10
0.0
 20
0.0
  3
D29
  0
CIRCLE
  8
0
 10
0.000000
 20
0.000000
 40
0.069000
 0
ENDBLK
  8
0
  0
BLOCK
  8
0
  2
D30
 70
64
 10
0.0
 20
0.0
  3
D30
  0
CIRCLE
  8
0
 10
0.000000
 20
0.000000
 40
0.049000
 0
ENDBLK
  8
0
  0
BLOCK
  8
0
  2
D31
 70
64
 10
0.0
 20
0.0
  3
D31
  0
CIRCLE
  8
0
 10
0.000000
 20
0.000000
 40
0.157500
 0
ENDBLK
  8
0
  0
BLOCK
  8
0
  2
D32
 70
64
 10
0.0
 20
0.0
  3
D32
  0
POLYLINE
  8
0
 66
1
 10
0.0
 20
0.0
 70
1
 40
0.0
 41
0.0
  0
VERTEX
  8
0
 10
-0.049000
 20
-0.049000
  0
VERTEX
  8
0
 10
0.049000
 20
-0.049000
  0
VERTEX
  8
0
 10
0.049000
 20
0.049000
  0
VERTEX
  8
0
 10
-0.049000
 20
0.049000
  0
SEQEND
  8
0
 0
ENDBLK
  8
0
  0
BLOCK
  8
0
  2
D33
 70
64
 10
0.0
 20
0.0
  3
D33
  0
POLYLINE
  8
0
 66
1
 10
0.0
 20
0.0
 70
1
 40
0.0
 41
0.0
  0
VERTEX
  8
0
 10
-0.029500
 20
-0.029500
  0
VERTEX
  8
0
 10
0.029500
 20
-0.029500
  0
VERTEX
  8
0
 10
0.029500
 20
0.029500
  0
VERTEX
  8
0
 10
-0.029500
 20
0.029500
  0
SEQEND
  8
0
 0
ENDBLK
  8
0
  0
BLOCK
  8
0
  2
D34
 70
64
 10
0.0
 20
0.0
  3
D34
  0
CIRCLE
  8
0
 10
0.000000
 20
0.000000
 40
0.029500
 0
ENDBLK
  8
0
  0
BLOCK
  8
0
  2
D35
 70
64
 10
0.0
 20
0.0
  3
D35
  0
CIRCLE
  8
0
 10
0.000000
 20
0.000000
 40
0.019000
 0
ENDBLK
  8
0
  0
BLOCK
  8
0
  2
D36
 70
64
 10
0.0
 20
0.0
  3
D36
  0
CIRCLE
  8
0
 10
0.000000
 20
0.000000
 40
0.010000
 0
ENDBLK
  8
0
  0
BLOCK
  8
0
  2
D37
 70
64
 10
0.0
 20
0.0
  3
D37
  0
CIRCLE
  8
0
 10
0.000000
 20
0.000000
 40
0.012500
 0
ENDBLK
  8
0
  0
BLOCK
  8
0
  2
D38
 70
64
 10
0.0
 20
0.0
  3
D38
  0
CIRCLE
  8
0
 10
0.000000
 20
0.000000
 40
0.012500
 0
ENDBLK
  8
0
  0
BLOCK
  8
0
  2
D39
 70
64
 10
0.0
 20
0.0
  3
D39
  0
CIRCLE
  8
0
 10
0.000000
 20
0.000000
 40
0.002000
 0
ENDBLK
  8
0
  0
BLOCK
  8
0
  2
D40
 70
64
 10
0.0
 20
0.0
  3
D40
  0
POLYLINE
  8
0
 66
1
 10
0.0
 20
0.0
 70
1
 40
0.0
 41
0.0
  0
VERTEX
  8
0
 10
-0.032500
 20
-0.059000
  0
VERTEX
  8
0
 10
0.032500
 20
-0.059000
  0
VERTEX
  8
0
 10
0.032500
 20
0.059000
  0
VERTEX
  8
0
 10
-0.032500
 20
0.059000
  0
SEQEND
  8
0
 0
ENDBLK
  8
0
  0
BLOCK
  8
0
  2
D41
 70
64
 10
0.0
 20
0.0
  3
D41
  0
CIRCLE
  8
0
 10
0.000000
 20
0.000000
 40
0.003500
 0
ENDBLK
  8
0
  0
BLOCK
  8
0
  2
D42
 70
64
 10
0.0
 20
0.0
  3
D42
  0
POLYLINE
  8
0
 66
1
 10
0.0
 20
0.0
 70
1
 40
0.0
 41
0.0
  0
VERTEX
  8
0
 10
-0.100000
 20
-0.017500
  0
VERTEX
  8
0
 10
0.100000
 20
-0.017500
  0
VERTEX
  8
0
 10
0.100000
 20
0.017500
  0
VERTEX
  8
0
 10
-0.100000
 20
0.017500
  0
SEQEND
  8
0
 0
ENDBLK
  8
0
  0
BLOCK
  8
0
  2
D43
 70
64
 10
0.0
 20
0.0
  3
D43
  0
CIRCLE
  8
0
 10
0.000000
 20
0.000000
 40
0.005000
 0
ENDBLK
  8
0
  0
BLOCK
  8
0
  2
D44
 70
64
 10
0.0
 20
0.0
  3
D44
  0
CIRCLE
  8
0
 10
0.000000
 20
0.000000
 40
0.012000
 0
ENDBLK
  8
0
  0
BLOCK
  8
0
  2
D45
 70
64
 10
0.0
 20
0.0
  3
D45
  0
CIRCLE
  8
0
 10
0.000000
 20
0.000000
 40
0.015500
 0
ENDBLK
  8
0
  0
BLOCK
  8
0
  2
D46
 70
64
 10
0.0
 20
0.0
  3
D46
  0
CIRCLE
  8
0
 10
0.000000
 20
0.000000
 40
0.001000
 0
ENDBLK
  8
0
  0
BLOCK
  8
0
  2
D47
 70
64
 10
0.0
 20
0.0
  3
D47
  0
POLYLINE
  8
0
 66
1
 10
0.0
 20
0.0
 70
1
 40
0.0
 41
0.0
  0
VERTEX
  8
0
 10
-0.019500
 20
-0.019500
  0
VERTEX
  8
0
 10
0.019500
 20
-0.019500
  0
VERTEX
  8
0
 10
0.019500
 20
0.019500
  0
VERTEX
  8
0
 10
-0.019500
 20
0.019500
  0
SEQEND
  8
0
 0
ENDBLK
  8
0
  0
BLOCK
  8
0
  2
D48
 70
64
 10
0.0
 20
0.0
  3
D48
  0
POLYLINE
  8
0
 66
1
 10
0.0
 20
0.0
 70
1
 40
0.0
 41
0.0
  0
VERTEX
  8
0
 10
-0.020500
 20
-0.021500
  0
VERTEX
  8
0
 10
0.020500
 20
-0.021500
  0
VERTEX
  8
0
 10
0.020500
 20
0.021500
  0
VERTEX
  8
0
 10
-0.020500
 20
0.021500
  0
SEQEND
  8
0
 0
ENDBLK
  8
0
  0
BLOCK
  8
0
  2
D49
 70
64
 10
0.0
 20
0.0
  3
D49
  0
POLYLINE
  8
0
 66
1
 10
0.0
 20
0.0
 70
1
 40
0.0
 41
0.0
  0
VERTEX
  8
0
 10
-0.021500
 20
-0.020500
  0
VERTEX
  8
0
 10
0.021500
 20
-0.020500
  0
VERTEX
  8
0
 10
0.021500
 20
0.020500
  0
VERTEX
  8
0
 10
-0.021500
 20
0.020500
  0
SEQEND
  8
0
 0
ENDBLK
  8
0
  0
BLOCK
  8
0
  2
D50
 70
64
 10
0.0
 20
0.0
  3
D50
  0
POLYLINE
  8
0
 66
1
 10
0.0
 20
0.0
 70
1
 40
0.0
 41
0.0
  0
VERTEX
  8
0
 10
-0.102000
 20
-0.049500
  0
VERTEX
  8
0
 10
0.102000
 20
-0.049500
  0
VERTEX
  8
0
 10
0.102000
 20
0.049500
  0
VERTEX
  8
0
 10
-0.102000
 20
0.049500
  0
SEQEND
  8
0
 0
ENDBLK
  8
0
  0
BLOCK
  8
0
  2
D51
 70
64
 10
0.0
 20
0.0
  3
D51
  0
CIRCLE
  8
0
 10
0.000000
 20
0.000000
 40
0.022000
 0
ENDBLK
  8
0
  0
BLOCK
  8
0
  2
D52
 70
64
 10
0.0
 20
0.0
  3
D52
  0
POLYLINE
  8
0
 66
1
 10
0.0
 20
0.0
 70
1
 40
0.0
 41
0.0
  0
VERTEX
  8
0
 10
-0.034500
 20
-0.061000
  0
VERTEX
  8
0
 10
0.034500
 20
-0.061000
  0
VERTEX
  8
0
 10
0.034500
 20
0.061000
  0
VERTEX
  8
0
 10
-0.034500
 20
0.061000
  0
SEQEND
  8
0
 0
ENDBLK
  8
0
  0
BLOCK
  8
0
  2
D53
 70
64
 10
0.0
 20
0.0
  3
D53
  0
POLYLINE
  8
0
 66
1
 10
0.0
 20
0.0
 70
1
 40
0.0
 41
0.0
  0
VERTEX
  8
0
 10
-0.102000
 20
-0.019500
  0
VERTEX
  8
0
 10
0.102000
 20
-0.019500
  0
VERTEX
  8
0
 10
0.102000
 20
0.019500
  0
VERTEX
  8
0
 10
-0.102000
 20
0.019500
  0
SEQEND
  8
0
 0
ENDBLK
  8
0
  0
BLOCK
  8
0
  2
D54
 70
64
 10
0.0
 20
0.0
  3
D54
  0
CIRCLE
  8
0
 10
0.000000
 20
0.000000
 40
0.007000
 0
ENDBLK
  8
0
  0
BLOCK
  8
0
  2
D55
 70
64
 10
0.0
 20
0.0
  3
D55
  0
POLYLINE
  8
0
 66
1
 10
0.0
 20
0.0
 70
1
 40
0.0
 41
0.0
  0
VERTEX
  8
0
 10
-0.021500
 20
-0.021500
  0
VERTEX
  8
0
 10
0.021500
 20
-0.021500
  0
VERTEX
  8
0
 10
0.021500
 20
0.021500
  0
VERTEX
  8
0
 10
-0.021500
 20
0.021500
  0
SEQEND
  8
0
 0
ENDBLK
  8
0
  0
BLOCK
  8
0
  2
D56
 70
64
 10
0.0
 20
0.0
  3
D56
  0
POLYLINE
  8
0
 66
1
 10
0.0
 20
0.0
 70
1
 40
0.0
 41
0.0
  0
VERTEX
  8
0
 10
-0.022500
 20
-0.023500
  0
VERTEX
  8
0
 10
0.022500
 20
-0.023500
  0
VERTEX
  8
0
 10
0.022500
 20
0.023500
  0
VERTEX
  8
0
 10
-0.022500
 20
0.023500
  0
SEQEND
  8
0
 0
ENDBLK
  8
0
  0
BLOCK
  8
0
  2
D57
 70
64
 10
0.0
 20
0.0
  3
D57
  0
POLYLINE
  8
0
 66
1
 10
0.0
 20
0.0
 70
1
 40
0.0
 41
0.0
  0
VERTEX
  8
0
 10
-0.023500
 20
-0.022500
  0
VERTEX
  8
0
 10
0.023500
 20
-0.022500
  0
VERTEX
  8
0
 10
0.023500
 20
0.022500
  0
VERTEX
  8
0
 10
-0.023500
 20
0.022500
  0
SEQEND
  8
0
 0
ENDBLK
  8
0
  0
BLOCK
  8
0
  2
D58
 70
64
 10
0.0
 20
0.0
  3
D58
  0
CIRCLE
  8
0
 10
0.000000
 20
0.000000
 40
0.060000
 0
ENDBLK
  8
0
  0
BLOCK
  8
0
  2
D59
 70
64
 10
0.0
 20
0.0
  3
D59
  0
POLYLINE
  8
0
 66
1
 10
0.0
 20
0.0
 70
1
 40
0.0
 41
0.0
  0
VERTEX
  8
0
 10
-0.104000
 20
-0.051500
  0
VERTEX
  8
0
 10
0.104000
 20
-0.051500
  0
VERTEX
  8
0
 10
0.104000
 20
0.051500
  0
VERTEX
  8
0
 10
-0.104000
 20
0.051500
  0
SEQEND
  8
0
 0
ENDBLK
  8
0
  0
BLOCK
  8
0
  2
D60
 70
64
 10
0.0
 20
0.0
  3
D60
  0
POLYLINE
  8
0
 66
1
 10
0.0
 20
0.0
 70
1
 40
0.0
 41
0.0
  0
VERTEX
  8
0
 10
-0.036500
 20
-0.063000
  0
VERTEX
  8
0
 10
0.036500
 20
-0.063000
  0
VERTEX
  8
0
 10
0.036500
 20
0.063000
  0
VERTEX
  8
0
 10
-0.036500
 20
0.063000
  0
SEQEND
  8
0
 0
ENDBLK
  8
0
  0
BLOCK
  8
0
  2
D61
 70
64
 10
0.0
 20
0.0
  3
D61
  0
POLYLINE
  8
0
 66
1
 10
0.0
 20
0.0
 70
1
 40
0.0
 41
0.0
  0
VERTEX
  8
0
 10
-0.104000
 20
-0.021500
  0
VERTEX
  8
0
 10
0.104000
 20
-0.021500
  0
VERTEX
  8
0
 10
0.104000
 20
0.021500
  0
VERTEX
  8
0
 10
-0.104000
 20
0.021500
  0
SEQEND
  8
0
 0
ENDBLK
  8
0
  0
BLOCK
  8
0
  2
D62
 70
64
 10
0.0
 20
0.0
  3
D62
  0
CIRCLE
  8
0
 10
0.000000
 20
0.000000
 40
0.073000
 0
ENDBLK
  8
0
  0
BLOCK
  8
0
  2
D63
 70
64
 10
0.0
 20
0.0
  3
D63
  0
CIRCLE
  8
0
 10
0.000000
 20
0.000000
 40
0.053000
 0
ENDBLK
  8
0
  0
BLOCK
  8
0
  2
D64
 70
64
 10
0.0
 20
0.0
  3
D64
  0
CIRCLE
  8
0
 10
0.000000
 20
0.000000
 40
0.161500
 0
ENDBLK
  8
0
  0
BLOCK
  8
0
  2
D65
 70
64
 10
0.0
 20
0.0
  3
D65
  0
POLYLINE
  8
0
 66
1
 10
0.0
 20
0.0
 70
1
 40
0.0
 41
0.0
  0
VERTEX
  8
0
 10
-0.053000
 20
-0.053000
  0
VERTEX
  8
0
 10
0.053000
 20
-0.053000
  0
VERTEX
  8
0
 10
0.053000
 20
0.053000
  0
VERTEX
  8
0
 10
-0.053000
 20
0.053000
  0
SEQEND
  8
0
 0
ENDBLK
  8
0
  0
BLOCK
  8
0
  2
D66
 70
64
 10
0.0
 20
0.0
  3
D66
  0
POLYLINE
  8
0
 66
1
 10
0.0
 20
0.0
 70
1
 40
0.0
 41
0.0
  0
VERTEX
  8
0
 10
-0.033500
 20
-0.033500
  0
VERTEX
  8
0
 10
0.033500
 20
-0.033500
  0
VERTEX
  8
0
 10
0.033500
 20
0.033500
  0
VERTEX
  8
0
 10
-0.033500
 20
0.033500
  0
SEQEND
  8
0
 0
ENDBLK
  8
0
  0
BLOCK
  8
0
  2
D67
 70
64
 10
0.0
 20
0.0
  3
D67
  0
CIRCLE
  8
0
 10
0.000000
 20
0.000000
 40
0.033500
 0
ENDBLK
  8
0
  0
BLOCK
  8
0
  2
D68
 70
64
 10
0.0
 20
0.0
  3
D68
  0
CIRCLE
  8
0
 10
0.000000
 20
0.000000
 40
0.023000
 0
ENDBLK
  8
0
  0
BLOCK
  8
0
  2
D69
 70
64
 10
0.0
 20
0.0
  3
D69
  0
CIRCLE
  8
0
 10
0.000000
 20
0.000000
 40
0.017500
 0
ENDBLK
  8
0
  0
BLOCK
  8
0
  2
D71
 70
64
 10
0.0
 20
0.0
  3
D71
  0
CIRCLE
  8
0
 10
0.000000
 20
0.000000
 40
0.002500
 0
ENDBLK
  8
0
  0
BLOCK
  8
0
  2
D72
 70
64
 10
0.0
 20
0.0
  3
D72
  0
CIRCLE
  8
0
 10
0.000000
 20
0.000000
 40
0.003500
 0
ENDBLK
  8
0
  0
BLOCK
  8
0
  2
D73
 70
64
 10
0.0
 20
0.0
  3
D73
  0
CIRCLE
  8
0
 10
0.000000
 20
0.000000
 40
0.008000
 0
ENDBLK
  8
0
  0
BLOCK
  8
0
  2
D74
 70
64
 10
0.0
 20
0.0
  3
D74
  0
CIRCLE
  8
0
 10
0.000000
 20
0.000000
 40
0.006500
 0
ENDBLK
  8
0
  0
BLOCK
  8
0
  2
D75
 70
64
 10
0.0
 20
0.0
  3
D75
  0
CIRCLE
  8
0
 10
0.000000
 20
0.000000
 40
0.002500
 0
ENDBLK
  8
0
  0
BLOCK
  8
0
  2
D1010
 70
64
 10
0.0
 20
0.0
  3
D1010
 0
ENDBLK
  8
0
  0
ENDSEC
  0
SECTION
  2
ENTITIES
  0
INSERT
  8
gbo
  2
D41
 10
0.848000
 20
2.139000
 41
1.0
 42
1.0
 43
1.0
 50
0.0
  0
INSERT
  8
gbo
  2
D41
 10
1.538000
 20
2.134000
 41
1.0
 42
1.0
 43
1.0
 50
0.0
  0
INSERT
  8
gbo
  2
D12
 10
0.535000
 20
0.820500
 41
1.0
 42
1.0
 43
1.0
 50
0.0
  0
POLYLINE
  8
gbo
 62
3
 40
0.000000
 41
0.000000
 66
  1
  0
VERTEX
  8
gbo
 10
0.964000
 20
2.070000
  0
VERTEX
  8
gbo
 10
0.964000
 20
2.109000
  0
VERTEX
  8
gbo
 10
0.944000
 20
2.109000
  0
VERTEX
  8
gbo
 10
0.937000
 20
2.103000
  0
VERTEX
  8
gbo
 10
0.937000
 20
2.090000
  0
VERTEX
  8
gbo
 10
0.944000
 20
2.083000
  0
VERTEX
  8
gbo
 10
0.964000
 20
2.083000
  0
SEQEND
  8
gbo
  0
POLYLINE
  8
gbo
 62
3
 40
0.000000
 41
0.000000
 66
  1
  0
VERTEX
  8
gbo
 10
0.924000
 20
2.103000
  0
VERTEX
  8
gbo
 10
0.918000
 20
2.109000
  0
VERTEX
  8
gbo
 10
0.905000
 20
2.109000
  0
VERTEX
  8
gbo
 10
0.898000
 20
2.103000
  0
VERTEX
  8
gbo
 10
0.898000
 20
2.096000
  0
VERTEX
  8
gbo
 10
0.905000
 20
2.090000
  0
VERTEX
  8
gbo
 10
0.911000
 20
2.090000
  0
VERTEX
  8
gbo
 10
0.905000
 20
2.090000
  0
VERTEX
  8
gbo
 10
0.898000
 20
2.083000
  0
VERTEX
  8
gbo
 10
0.898000
 20
2.076000
  0
VERTEX
  8
gbo
 10
0.905000
 20
2.070000
  0
VERTEX
  8
gbo
 10
0.918000
 20
2.070000
  0
VERTEX
  8
gbo
 10
0.924000
 20
2.076000
  0
SEQEND
  8
gbo
  0
POLYLINE
  8
gbo
 62
3
 40
0.000000
 41
0.000000
 66
  1
  0
VERTEX
  8
gbo
 10
1.650000
 20
2.069000
  0
VERTEX
  8
gbo
 10
1.650000
 20
2.108000
  0
VERTEX
  8
gbo
 10
1.630000
 20
2.108000
  0
VERTEX
  8
gbo
 10
1.623000
 20
2.102000
  0
VERTEX
  8
gbo
 10
1.623000
 20
2.089000
  0
VERTEX
  8
gbo
 10
1.630000
 20
2.082000
  0
VERTEX
  8
gbo
 10
1.650000
 20
2.082000
  0
SEQEND
  8
gbo
  0
POLYLINE
  8
gbo
 62
3
 40
0.000000
 41
0.000000
 66
  1
  0
VERTEX
  8
gbo
 10
1.584000
 20
2.069000
  0
VERTEX
  8
gbo
 10
1.610000
 20
2.069000
  0
VERTEX
  8
gbo
 10
1.584000
 20
2.095000
  0
VERTEX
  8
gbo
 10
1.584000
 20
2.102000
  0
VERTEX
  8
gbo
 10
1.591000
 20
2.108000
  0
VERTEX
  8
gbo
 10
1.604000
 20
2.108000
  0
VERTEX
  8
gbo
 10
1.610000
 20
2.102000
  0
SEQEND
  8
gbo
  0
POLYLINE
  8
gbo
 62
3
 40
0.000000
 41
0.000000
 66
  1
  0
VERTEX
  8
gbo
 10
1.935000
 20
1.180000
  0
VERTEX
  8
gbo
 10
1.935000
 20
1.219000
  0
VERTEX
  8
gbo
 10
1.915000
 20
1.219000
  0
VERTEX
  8
gbo
 10
1.909000
 20
1.213000
  0
VERTEX
  8
gbo
 10
1.909000
 20
1.200000
  0
VERTEX
  8
gbo
 10
1.915000
 20
1.193000
  0
VERTEX
  8
gbo
 10
1.935000
 20
1.193000
  0
SEQEND
  8
gbo
  0
POLYLINE
  8
gbo
 62
3
 40
0.000000
 41
0.000000
 66
  1
  0
VERTEX
  8
gbo
 10
1.876000
 20
1.180000
  0
VERTEX
  8
gbo
 10
1.876000
 20
1.219000
  0
VERTEX
  8
gbo
 10
1.896000
 20
1.200000
  0
VERTEX
  8
gbo
 10
1.870000
 20
1.200000
  0
SEQEND
  8
gbo
  0
POLYLINE
  8
gbo
 62
3
 40
0.000000
 41
0.000000
 66
  1
  0
VERTEX
  8
gbo
 10
1.377000
 20
0.043000
  0
VERTEX
  8
gbo
 10
1.377000
 20
0.082000
  0
VERTEX
  8
gbo
 10
1.357000
 20
0.082000
  0
VERTEX
  8
gbo
 10
1.350000
 20
0.075000
  0
VERTEX
  8
gbo
 10
1.350000
 20
0.062000
  0
VERTEX
  8
gbo
 10
1.357000
 20
0.056000
  0
VERTEX
  8
gbo
 10
1.377000
 20
0.056000
  0
SEQEND
  8
gbo
  0
POLYLINE
  8
gbo
 62
3
 40
0.000000
 41
0.000000
 66
  1
  0
VERTEX
  8
gbo
 10
1.311000
 20
0.082000
  0
VERTEX
  8
gbo
 10
1.337000
 20
0.082000
  0
VERTEX
  8
gbo
 10
1.337000
 20
0.062000
  0
VERTEX
  8
gbo
 10
1.324000
 20
0.069000
  0
VERTEX
  8
gbo
 10
1.318000
 20
0.069000
  0
VERTEX
  8
gbo
 10
1.311000
 20
0.062000
  0
VERTEX
  8
gbo
 10
1.311000
 20
0.049000
  0
VERTEX
  8
gbo
 10
1.318000
 20
0.043000
  0
VERTEX
  8
gbo
 10
1.331000
 20
0.043000
  0
VERTEX
  8
gbo
 10
1.337000
 20
0.049000
  0
SEQEND
  8
gbo
  0
POLYLINE
  8
gbo
 62
3
 40
0.000000
 41
0.000000
 66
  1
  0
VERTEX
  8
gbo
 10
1.682000
 20
1.142000
  0
VERTEX
  8
gbo
 10
1.673000
 20
1.142000
  0
VERTEX
  8
gbo
 10
1.663000
 20
1.141000
  0
VERTEX
  8
gbo
 10
1.653000
 20
1.140000
  0
VERTEX
  8
gbo
 10
1.644000
 20
1.139000
  0
VERTEX
  8
gbo
 10
1.634000
 20
1.137000
  0
VERTEX
  8
gbo
 10
1.625000
 20
1.135000
  0
VERTEX
  8
gbo
 10
1.616000
 20
1.132000
  0
VERTEX
  8
gbo
 10
1.607000
 20
1.129000
  0
VERTEX
  8
gbo
 10
1.598000
 20
1.125000
  0
SEQEND
  8
gbo
  0
POLYLINE
  8
gbo
 62
3
 40
0.000000
 41
0.000000
 66
  1
  0
VERTEX
  8
gbo
 10
1.480000
 20
1.008000
  0
VERTEX
  8
gbo
 10
1.476000
 20
0.999000
  0
VERTEX
  8
gbo
 10
1.473000
 20
0.990000
  0
VERTEX
  8
gbo
 10
1.470000
 20
0.980000
  0
VERTEX
  8
gbo
 10
1.468000
 20
0.971000
  0
VERTEX
  8
gbo
 10
1.466000
 20
0.961000
  0
VERTEX
  8
gbo
 10
1.464000
 20
0.952000
  0
VERTEX
  8
gbo
 10
1.463000
 20
0.942000
  0
VERTEX
  8
gbo
 10
1.462000
 20
0.932000
  0
VERTEX
  8
gbo
 10
1.462000
 20
0.922000
  0
VERTEX
  8
gbo
 10
1.462000
 20
0.912000
  0
VERTEX
  8
gbo
 10
1.463000
 20
0.903000
  0
VERTEX
  8
gbo
 10
1.464000
 20
0.893000
  0
VERTEX
  8
gbo
 10
1.466000
 20
0.883000
  0
VERTEX
  8
gbo
 10
1.468000
 20
0.874000
  0
VERTEX
  8
gbo
 10
1.470000
 20
0.864000
  0
VERTEX
  8
gbo
 10
1.473000
 20
0.855000
  0
VERTEX
  8
gbo
 10
1.476000
 20
0.845000
  0
VERTEX
  8
gbo
 10
1.480000
 20
0.836000
  0
SEQEND
  8
gbo
  0
POLYLINE
  8
gbo
 62
3
 40
0.000000
 41
0.000000
 66
  1
  0
VERTEX
  8
gbo
 10
1.598000
 20
0.719000
  0
VERTEX
  8
gbo
 10
1.607000
 20
0.716000
  0
VERTEX
  8
gbo
 10
1.616000
 20
0.712000
  0
VERTEX
  8
gbo
 10
1.625000
 20
0.710000
  0
VERTEX
  8
gbo
 10
1.634000
 20
0.707000
  0
VERTEX
  8
gbo
 10
1.644000
 20
0.706000
  0
VERTEX
  8
gbo
 10
1.653000
 20
0.704000
  0
VERTEX
  8
gbo
 10
1.663000
 20
0.703000
  0
VERTEX
  8
gbo
 10
1.673000
 20
0.702000
  0
VERTEX
  8
gbo
 10
1.682000
 20
0.702000
  0
VERTEX
  8
gbo
 10
1.692000
 20
0.702000
  0
VERTEX
  8
gbo
 10
1.701000
 20
0.703000
  0
VERTEX
  8
gbo
 10
1.711000
 20
0.704000
  0
VERTEX
  8
gbo
 10
1.720000
 20
0.706000
  0
VERTEX
  8
gbo
 10
1.730000
 20
0.707000
  0
VERTEX
  8
gbo
 10
1.739000
 20
0.710000
  0
VERTEX
  8
gbo
 10
1.748000
 20
0.712000
  0
VERTEX
  8
gbo
 10
1.757000
 20
0.716000
  0
VERTEX
  8
gbo
 10
1.766000
 20
0.719000
  0
SEQEND
  8
gbo
  0
POLYLINE
  8
gbo
 62
3
 40
0.000000
 41
0.000000
 66
  1
  0
VERTEX
  8
gbo
 10
1.885000
 20
0.836000
  0
VERTEX
  8
gbo
 10
1.888000
 20
0.845000
  0
VERTEX
  8
gbo
 10
1.891000
 20
0.855000
  0
VERTEX
  8
gbo
 10
1.894000
 20
0.864000
  0
VERTEX
  8
gbo
 10
1.897000
 20
0.874000
  0
VERTEX
  8
gbo
 10
1.899000
 20
0.883000
  0
VERTEX
  8
gbo
 10
1.900000
 20
0.893000
  0
VERTEX
  8
gbo
 10
1.901000
 20
0.903000
  0
VERTEX
  8
gbo
 10
1.902000
 20
0.912000
  0
VERTEX
  8
gbo
 10
1.902000
 20
0.922000
  0
SEQEND
  8
gbo
  0
POLYLINE
  8
gbo
 62
3
 40
0.000000
 41
0.000000
 66
  1
  0
VERTEX
  8
gbo
 10
1.902000
 20
0.922000
  0
VERTEX
  8
gbo
 10
1.902000
 20
0.932000
  0
VERTEX
  8
gbo
 10
1.901000
 20
0.942000
  0
VERTEX
  8
gbo
 10
1.900000
 20
0.952000
  0
VERTEX
  8
gbo
 10
1.899000
 20
0.961000
  0
VERTEX
  8
gbo
 10
1.897000
 20
0.971000
  0
VERTEX
  8
gbo
 10
1.894000
 20
0.980000
  0
VERTEX
  8
gbo
 10
1.891000
 20
0.990000
  0
VERTEX
  8
gbo
 10
1.888000
 20
0.999000
  0
VERTEX
  8
gbo
 10
1.885000
 20
1.008000
  0
SEQEND
  8
gbo
  0
POLYLINE
  8
gbo
 62
3
 40
0.000000
 41
0.000000
 66
  1
  0
VERTEX
  8
gbo
 10
1.766000
 20
1.125000
  0
VERTEX
  8
gbo
 10
1.757000
 20
1.129000
  0
VERTEX
  8
gbo
 10
1.748000
 20
1.132000
  0
VERTEX
  8
gbo
 10
1.739000
 20
1.135000
  0
VERTEX
  8
gbo
 10
1.730000
 20
1.137000
  0
VERTEX
  8
gbo
 10
1.720000
 20
1.139000
  0
VERTEX
  8
gbo
 10
1.711000
 20
1.140000
  0
VERTEX
  8
gbo
 10
1.701000
 20
1.141000
  0
VERTEX
  8
gbo
 10
1.692000
 20
1.142000
  0
VERTEX
  8
gbo
 10
1.682000
 20
1.142000
  0
SEQEND
  8
gbo
  0
POLYLINE
  8
gbo
 62
3
 40
0.000000
 41
0.000000
 66
  1
  0
VERTEX
  8
gbo
 10
1.284000
 20
0.321000
  0
VERTEX
  8
gbo
 10
1.283000
 20
0.331000
  0
VERTEX
  8
gbo
 10
1.283000
 20
0.340000
  0
VERTEX
  8
gbo
 10
1.282000
 20
0.350000
  0
VERTEX
  8
gbo
 10
1.280000
 20
0.359000
  0
VERTEX
  8
gbo
 10
1.278000
 20
0.369000
  0
VERTEX
  8
gbo
 10
1.276000
 20
0.378000
  0
VERTEX
  8
gbo
 10
1.273000
 20
0.387000
  0
VERTEX
  8
gbo
 10
1.270000
 20
0.397000
  0
VERTEX
  8
gbo
 10
1.267000
 20
0.405000
  0
SEQEND
  8
gbo
  0
POLYLINE
  8
gbo
 62
3
 40
0.000000
 41
0.000000
 66
  1
  0
VERTEX
  8
gbo
 10
1.150000
 20
0.524000
  0
VERTEX
  8
gbo
 10
1.141000
 20
0.527000
  0
VERTEX
  8
gbo
 10
1.131000
 20
0.531000
  0
VERTEX
  8
gbo
 10
1.122000
 20
0.533000
  0
VERTEX
  8
gbo
 10
1.112000
 20
0.536000
  0
VERTEX
  8
gbo
 10
1.103000
 20
0.538000
  0
VERTEX
  8
gbo
 10
1.093000
 20
0.539000
  0
VERTEX
  8
gbo
 10
1.083000
 20
0.540000
  0
VERTEX
  8
gbo
 10
1.074000
 20
0.541000
  0
VERTEX
  8
gbo
 10
1.064000
 20
0.541000
  0
VERTEX
  8
gbo
 10
1.054000
 20
0.541000
  0
VERTEX
  8
gbo
 10
1.044000
 20
0.540000
  0
VERTEX
  8
gbo
 10
1.034000
 20
0.539000
  0
VERTEX
  8
gbo
 10
1.025000
 20
0.538000
  0
VERTEX
  8
gbo
 10
1.015000
 20
0.536000
  0
VERTEX
  8
gbo
 10
1.005000
 20
0.533000
  0
VERTEX
  8
gbo
 10
0.996000
 20
0.531000
  0
VERTEX
  8
gbo
 10
0.987000
 20
0.527000
  0
VERTEX
  8
gbo
 10
0.978000
 20
0.524000
  0
SEQEND
  8
gbo
  0
POLYLINE
  8
gbo
 62
3
 40
0.000000
 41
0.000000
 66
  1
  0
VERTEX
  8
gbo
 10
0.860000
 20
0.405000
  0
VERTEX
  8
gbo
 10
0.857000
 20
0.397000
  0
VERTEX
  8
gbo
 10
0.854000
 20
0.387000
  0
VERTEX
  8
gbo
 10
0.851000
 20
0.378000
  0
VERTEX
  8
gbo
 10
0.849000
 20
0.369000
  0
VERTEX
  8
gbo
 10
0.847000
 20
0.359000
  0
VERTEX
  8
gbo
 10
0.846000
 20
0.350000
  0
VERTEX
  8
gbo
 10
0.845000
 20
0.340000
  0
VERTEX
  8
gbo
 10
0.844000
 20
0.331000
  0
VERTEX
  8
gbo
 10
0.844000
 20
0.321000
  0
VERTEX
  8
gbo
 10
0.844000
 20
0.312000
  0
VERTEX
  8
gbo
 10
0.845000
 20
0.302000
  0
VERTEX
  8
gbo
 10
0.846000
 20
0.292000
  0
VERTEX
  8
gbo
 10
0.847000
 20
0.283000
  0
VERTEX
  8
gbo
 10
0.849000
 20
0.274000
  0
VERTEX
  8
gbo
 10
0.851000
 20
0.264000
  0
VERTEX
  8
gbo
 10
0.854000
 20
0.255000
  0
VERTEX
  8
gbo
 10
0.857000
 20
0.246000
  0
VERTEX
  8
gbo
 10
0.860000
 20
0.237000
  0
SEQEND
  8
gbo
  0
POLYLINE
  8
gbo
 62
3
 40
0.000000
 41
0.000000
 66
  1
  0
VERTEX
  8
gbo
 10
0.978000
 20
0.119000
  0
VERTEX
  8
gbo
 10
0.987000
 20
0.115000
  0
VERTEX
  8
gbo
 10
0.996000
 20
0.112000
  0
VERTEX
  8
gbo
 10
1.005000
 20
0.109000
  0
VERTEX
  8
gbo
 10
1.015000
 20
0.107000
  0
VERTEX
  8
gbo
 10
1.025000
 20
0.105000
  0
VERTEX
  8
gbo
 10
1.034000
 20
0.103000
  0
VERTEX
  8
gbo
 10
1.044000
 20
0.102000
  0
VERTEX
  8
gbo
 10
1.054000
 20
0.101000
  0
VERTEX
  8
gbo
 10
1.064000
 20
0.101000
  0
SEQEND
  8
gbo
  0
POLYLINE
  8
gbo
 62
3
 40
0.000000
 41
0.000000
 66
  1
  0
VERTEX
  8
gbo
 10
1.064000
 20
0.101000
  0
VERTEX
  8
gbo
 10
1.074000
 20
0.101000
  0
VERTEX
  8
gbo
 10
1.083000
 20
0.102000
  0
VERTEX
  8
gbo
 10
1.093000
 20
0.103000
  0
VERTEX
  8
gbo
 10
1.103000
 20
0.105000
  0
VERTEX
  8
gbo
 10
1.112000
 20
0.107000
  0
VERTEX
  8
gbo
 10
1.122000
 20
0.109000
  0
VERTEX
  8
gbo
 10
1.131000
 20
0.112000
  0
VERTEX
  8
gbo
 10
1.141000
 20
0.115000
  0
VERTEX
  8
gbo
 10
1.150000
 20
0.119000
  0
SEQEND
  8
gbo
  0
POLYLINE
  8
gbo
 62
3
 40
0.000000
 41
0.000000
 66
  1
  0
VERTEX
  8
gbo
 10
1.267000
 20
0.237000
  0
VERTEX
  8
gbo
 10
1.270000
 20
0.246000
  0
VERTEX
  8
gbo
 10
1.273000
 20
0.255000
  0
VERTEX
  8
gbo
 10
1.276000
 20
0.264000
  0
VERTEX
  8
gbo
 10
1.278000
 20
0.274000
  0
VERTEX
  8
gbo
 10
1.280000
 20
0.283000
  0
VERTEX
  8
gbo
 10
1.282000
 20
0.292000
  0
VERTEX
  8
gbo
 10
1.283000
 20
0.302000
  0
VERTEX
  8
gbo
 10
1.283000
 20
0.312000
  0
VERTEX
  8
gbo
 10
1.284000
 20
0.321000
  0
SEQEND
  8
gbo
  0
POLYLINE
  8
gbo
 62
3
 40
0.000000
 41
0.000000
 66
  1
  0
VERTEX
  8
gbo
 10
1.687000
 20
1.142000
  0
VERTEX
  8
gbo
 10
1.982000
 20
1.142000
  0
SEQEND
  8
gbo
  0
POLYLINE
  8
gbo
 62
3
 40
0.000000
 41
0.000000
 66
  1
  0
VERTEX
  8
gbo
 10
1.982000
 20
0.702000
  0
VERTEX
  8
gbo
 10
1.982000
 20
1.142000
  0
SEQEND
  8
gbo
  0
POLYLINE
  8
gbo
 62
3
 40
0.000000
 41
0.000000
 66
  1
  0
VERTEX
  8
gbo
 10
1.687000
 20
0.702000
  0
VERTEX
  8
gbo
 10
1.982000
 20
0.702000
  0
SEQEND
  8
gbo
  0
POLYLINE
  8
gbo
 62
3
 40
0.000000
 41
0.000000
 66
  1
  0
VERTEX
  8
gbo
 10
1.284000
 20
0.021000
  0
VERTEX
  8
gbo
 10
1.284000
 20
0.316000
  0
SEQEND
  8
gbo
  0
POLYLINE
  8
gbo
 62
3
 40
0.000000
 41
0.000000
 66
  1
  0
VERTEX
  8
gbo
 10
0.844000
 20
0.021000
  0
VERTEX
  8
gbo
 10
1.284000
 20
0.021000
  0
SEQEND
  8
gbo
  0
POLYLINE
  8
gbo
 62
3
 40
0.000000
 41
0.000000
 66
  1
  0
VERTEX
  8
gbo
 10
0.844000
 20
0.021000
  0
VERTEX
  8
gbo
 10
0.844000
 20
0.316000
  0
SEQEND
  8
gbo
  0
POLYLINE
  8
gbo
 62
3
 40
0.000000
 41
0.000000
 66
  1
  0
VERTEX
  8
gbo
 10
0.480000
 20
1.314000
  0
VERTEX
  8
gbo
 10
0.864000
 20
1.314000
  0
SEQEND
  8
gbo
  0
POLYLINE
  8
gbo
 62
3
 40
0.000000
 41
0.000000
 66
  1
  0
VERTEX
  8
gbo
 10
0.478000
 20
1.316000
  0
VERTEX
  8
gbo
 10
0.480000
 20
1.314000
  0
SEQEND
  8
gbo
  0
POLYLINE
  8
gbo
 62
3
 40
0.000000
 41
0.000000
 66
  1
  0
VERTEX
  8
gbo
 10
0.478000
 20
1.316000
  0
VERTEX
  8
gbo
 10
0.478000
 20
1.391000
  0
SEQEND
  8
gbo
  0
POLYLINE
  8
gbo
 62
3
 40
0.000000
 41
0.000000
 66
  1
  0
VERTEX
  8
gbo
 10
0.478000
 20
1.438000
  0
VERTEX
  8
gbo
 10
0.478000
 20
1.946000
  0
SEQEND
  8
gbo
  0
POLYLINE
  8
gbo
 62
3
 40
0.000000
 41
0.000000
 66
  1
  0
VERTEX
  8
gbo
 10
0.478000
 20
1.993000
  0
VERTEX
  8
gbo
 10
0.478000
 20
2.135000
  0
SEQEND
  8
gbo
  0
POLYLINE
  8
gbo
 62
3
 40
0.000000
 41
0.000000
 66
  1
  0
VERTEX
  8
gbo
 10
0.478000
 20
2.137000
  0
VERTEX
  8
gbo
 10
0.864000
 20
2.137000
  0
SEQEND
  8
gbo
  0
POLYLINE
  8
gbo
 62
3
 40
0.000000
 41
0.000000
 66
  1
  0
VERTEX
  8
gbo
 10
0.478000
 20
1.391000
  0
VERTEX
  8
gbo
 10
0.506000
 20
1.391000
  0
VERTEX
  8
gbo
 10
0.506000
 20
1.438000
  0
SEQEND
  8
gbo
  0
POLYLINE
  8
gbo
 62
3
 40
0.000000
 41
0.000000
 66
  1
  0
VERTEX
  8
gbo
 10
0.478000
 20
1.438000
  0
VERTEX
  8
gbo
 10
0.506000
 20
1.438000
  0
SEQEND
  8
gbo
  0
POLYLINE
  8
gbo
 62
3
 40
0.000000
 41
0.000000
 66
  1
  0
VERTEX
  8
gbo
 10
0.478000
 20
1.946000
  0
VERTEX
  8
gbo
 10
0.506000
 20
1.946000
  0
VERTEX
  8
gbo
 10
0.506000
 20
1.993000
  0
SEQEND
  8
gbo
  0
POLYLINE
  8
gbo
 62
3
 40
0.000000
 41
0.000000
 66
  1
  0
VERTEX
  8
gbo
 10
0.478000
 20
1.993000
  0
VERTEX
  8
gbo
 10
0.506000
 20
1.993000
  0
SEQEND
  8
gbo
  0
POLYLINE
  8
gbo
 62
3
 40
0.000000
 41
0.000000
 66
  1
  0
VERTEX
  8
gbo
 10
0.864000
 20
1.993000
  0
VERTEX
  8
gbo
 10
0.864000
 20
2.135000
  0
SEQEND
  8
gbo
  0
POLYLINE
  8
gbo
 62
3
 40
0.000000
 41
0.000000
 66
  1
  0
VERTEX
  8
gbo
 10
0.864000
 20
1.438000
  0
VERTEX
  8
gbo
 10
0.864000
 20
1.946000
  0
VERTEX
  8
gbo
 10
0.892000
 20
1.946000
  0
VERTEX
  8
gbo
 10
0.892000
 20
1.993000
  0
SEQEND
  8
gbo
  0
POLYLINE
  8
gbo
 62
3
 40
0.000000
 41
0.000000
 66
  1
  0
VERTEX
  8
gbo
 10
0.864000
 20
1.993000
  0
VERTEX
  8
gbo
 10
0.892000
 20
1.993000
  0
SEQEND
  8
gbo
  0
POLYLINE
  8
gbo
 62
3
 40
0.000000
 41
0.000000
 66
  1
  0
VERTEX
  8
gbo
 10
0.864000
 20
1.316000
  0
VERTEX
  8
gbo
 10
0.864000
 20
1.391000
  0
SEQEND
  8
gbo
  0
POLYLINE
  8
gbo
 62
3
 40
0.000000
 41
0.000000
 66
  1
  0
VERTEX
  8
gbo
 10
0.864000
 20
1.438000
  0
VERTEX
  8
gbo
 10
0.892000
 20
1.438000
  0
SEQEND
  8
gbo
  0
POLYLINE
  8
gbo
 62
3
 40
0.000000
 41
0.000000
 66
  1
  0
VERTEX
  8
gbo
 10
0.892000
 20
1.391000
  0
VERTEX
  8
gbo
 10
0.892000
 20
1.438000
  0
SEQEND
  8
gbo
  0
POLYLINE
  8
gbo
 62
3
 40
0.000000
 41
0.000000
 66
  1
  0
VERTEX
  8
gbo
 10
0.864000
 20
1.391000
  0
VERTEX
  8
gbo
 10
0.892000
 20
1.391000
  0
SEQEND
  8
gbo
  0
POLYLINE
  8
gbo
 62
3
 40
0.000000
 41
0.000000
 66
  1
  0
VERTEX
  8
gbo
 10
0.494000
 20
2.139000
  0
VERTEX
  8
gbo
 10
0.494000
 20
2.241000
  0
VERTEX
  8
gbo
 10
0.848000
 20
2.241000
  0
SEQEND
  8
gbo
  0
POLYLINE
  8
gbo
 62
3
 40
0.000000
 41
0.000000
 66
  1
  0
VERTEX
  8
gbo
 10
0.848000
 20
2.139000
  0
VERTEX
  8
gbo
 10
0.848000
 20
2.241000
  0
SEQEND
  8
gbo
  0
POLYLINE
  8
gbo
 62
3
 40
0.000000
 41
0.000000
 66
  1
  0
VERTEX
  8
gbo
 10
1.538000
 20
2.134000
  0
VERTEX
  8
gbo
 10
1.538000
 20
2.236000
  0
SEQEND
  8
gbo
  0
POLYLINE
  8
gbo
 62
3
 40
0.000000
 41
0.000000
 66
  1
  0
VERTEX
  8
gbo
 10
1.184000
 20
2.236000
  0
VERTEX
  8
gbo
 10
1.538000
 20
2.236000
  0
SEQEND
  8
gbo
  0
POLYLINE
  8
gbo
 62
3
 40
0.000000
 41
0.000000
 66
  1
  0
VERTEX
  8
gbo
 10
1.184000
 20
2.134000
  0
VERTEX
  8
gbo
 10
1.184000
 20
2.236000
  0
SEQEND
  8
gbo
  0
POLYLINE
  8
gbo
 62
3
 40
0.000000
 41
0.000000
 66
  1
  0
VERTEX
  8
gbo
 10
1.554000
 20
1.386000
  0
VERTEX
  8
gbo
 10
1.582000
 20
1.386000
  0
VERTEX
  8
gbo
 10
1.582000
 20
1.433000
  0
SEQEND
  8
gbo
  0
POLYLINE
  8
gbo
 62
3
 40
0.000000
 41
0.000000
 66
  1
  0
VERTEX
  8
gbo
 10
1.554000
 20
1.433000
  0
VERTEX
  8
gbo
 10
1.582000
 20
1.433000
  0
SEQEND
  8
gbo
  0
POLYLINE
  8
gbo
 62
3
 40
0.000000
 41
0.000000
 66
  1
  0
VERTEX
  8
gbo
 10
1.554000
 20
1.311000
  0
VERTEX
  8
gbo
 10
1.554000
 20
1.386000
  0
SEQEND
  8
gbo
  0
POLYLINE
  8
gbo
 62
3
 40
0.000000
 41
0.000000
 66
  1
  0
VERTEX
  8
gbo
 10
1.554000
 20
1.988000
  0
VERTEX
  8
gbo
 10
1.582000
 20
1.988000
  0
SEQEND
  8
gbo
  0
POLYLINE
  8
gbo
 62
3
 40
0.000000
 41
0.000000
 66
  1
  0
VERTEX
  8
gbo
 10
1.582000
 20
1.941000
  0
VERTEX
  8
gbo
 10
1.582000
 20
1.988000
  0
SEQEND
  8
gbo
  0
POLYLINE
  8
gbo
 62
3
 40
0.000000
 41
0.000000
 66
  1
  0
VERTEX
  8
gbo
 10
1.554000
 20
1.941000
  0
VERTEX
  8
gbo
 10
1.582000
 20
1.941000
  0
SEQEND
  8
gbo
  0
POLYLINE
  8
gbo
 62
3
 40
0.000000
 41
0.000000
 66
  1
  0
VERTEX
  8
gbo
 10
1.554000
 20
1.433000
  0
VERTEX
  8
gbo
 10
1.554000
 20
1.941000
  0
SEQEND
  8
gbo
  0
POLYLINE
  8
gbo
 62
3
 40
0.000000
 41
0.000000
 66
  1
  0
VERTEX
  8
gbo
 10
1.554000
 20
1.988000
  0
VERTEX
  8
gbo
 10
1.554000
 20
2.130000
  0
SEQEND
  8
gbo
  0
POLYLINE
  8
gbo
 62
3
 40
0.000000
 41
0.000000
 66
  1
  0
VERTEX
  8
gbo
 10
1.168000
 20
1.988000
  0
VERTEX
  8
gbo
 10
1.196000
 20
1.988000
  0
SEQEND
  8
gbo
  0
POLYLINE
  8
gbo
 62
3
 40
0.000000
 41
0.000000
 66
  1
  0
VERTEX
  8
gbo
 10
1.196000
 20
1.941000
  0
VERTEX
  8
gbo
 10
1.196000
 20
1.988000
  0
SEQEND
  8
gbo
  0
POLYLINE
  8
gbo
 62
3
 40
0.000000
 41
0.000000
 66
  1
  0
VERTEX
  8
gbo
 10
1.168000
 20
1.941000
  0
VERTEX
  8
gbo
 10
1.196000
 20
1.941000
  0
SEQEND
  8
gbo
  0
POLYLINE
  8
gbo
 62
3
 40
0.000000
 41
0.000000
 66
  1
  0
VERTEX
  8
gbo
 10
1.168000
 20
1.433000
  0
VERTEX
  8
gbo
 10
1.196000
 20
1.433000
  0
SEQEND
  8
gbo
  0
POLYLINE
  8
gbo
 62
3
 40
0.000000
 41
0.000000
 66
  1
  0
VERTEX
  8
gbo
 10
1.196000
 20
1.386000
  0
VERTEX
  8
gbo
 10
1.196000
 20
1.433000
  0
SEQEND
  8
gbo
  0
POLYLINE
  8
gbo
 62
3
 40
0.000000
 41
0.000000
 66
  1
  0
VERTEX
  8
gbo
 10
1.168000
 20
1.386000
  0
VERTEX
  8
gbo
 10
1.196000
 20
1.386000
  0
SEQEND
  8
gbo
  0
POLYLINE
  8
gbo
 62
3
 40
0.000000
 41
0.000000
 66
  1
  0
VERTEX
  8
gbo
 10
1.168000
 20
2.132000
  0
VERTEX
  8
gbo
 10
1.554000
 20
2.132000
  0
SEQEND
  8
gbo
  0
POLYLINE
  8
gbo
 62
3
 40
0.000000
 41
0.000000
 66
  1
  0
VERTEX
  8
gbo
 10
1.168000
 20
1.988000
  0
VERTEX
  8
gbo
 10
1.168000
 20
2.130000
  0
SEQEND
  8
gbo
  0
POLYLINE
  8
gbo
 62
3
 40
0.000000
 41
0.000000
 66
  1
  0
VERTEX
  8
gbo
 10
1.168000
 20
1.433000
  0
VERTEX
  8
gbo
 10
1.168000
 20
1.941000
  0
SEQEND
  8
gbo
  0
POLYLINE
  8
gbo
 62
3
 40
0.000000
 41
0.000000
 66
  1
  0
VERTEX
  8
gbo
 10
1.168000
 20
1.311000
  0
VERTEX
  8
gbo
 10
1.168000
 20
1.386000
  0
SEQEND
  8
gbo
  0
POLYLINE
  8
gbo
 62
3
 40
0.000000
 41
0.000000
 66
  1
  0
VERTEX
  8
gbo
 10
1.168000
 20
1.311000
  0
VERTEX
  8
gbo
 10
1.170000
 20
1.309000
  0
VERTEX
  8
gbo
 10
1.554000
 20
1.309000
  0
SEQEND
  8
gbo
  0
POLYLINE
  8
gbo
 62
3
 40
0.000000
 41
0.000000
 66
  1
  0
VERTEX
  8
gbo
 10
1.330700
 20
0.944200
  0
VERTEX
  8
gbo
 10
1.330700
 20
0.911200
  0
VERTEX
  8
gbo
 10
1.323700
 20
0.904200
  0
VERTEX
  8
gbo
 10
1.310700
 20
0.904200
  0
VERTEX
  8
gbo
 10
1.303700
 20
0.911200
  0
VERTEX
  8
gbo
 10
1.303700
 20
0.944200
  0
SEQEND
  8
gbo
  0
POLYLINE
  8
gbo
 62
3
 40
0.000000
 41
0.000000
 66
  1
  0
VERTEX
  8
gbo
 10
1.290700
 20
0.944200
  0
VERTEX
  8
gbo
 10
1.290700
 20
0.904200
  0
VERTEX
  8
gbo
 10
1.264700
 20
0.904200
  0
SEQEND
  8
gbo
  0
POLYLINE
  8
gbo
 62
3
 40
0.000000
 41
0.000000
 66
  1
  0
VERTEX
  8
gbo
 10
1.251700
 20
0.911200
  0
VERTEX
  8
gbo
 10
1.244700
 20
0.904200
  0
VERTEX
  8
gbo
 10
1.231700
 20
0.904200
  0
VERTEX
  8
gbo
 10
1.225700
 20
0.911200
  0
VERTEX
  8
gbo
 10
1.225700
 20
0.937200
  0
VERTEX
  8
gbo
 10
1.231700
 20
0.944200
  0
VERTEX
  8
gbo
 10
1.244700
 20
0.944200
  0
VERTEX
  8
gbo
 10
1.251700
 20
0.937200
  0
VERTEX
  8
gbo
 10
1.251700
 20
0.931200
  0
VERTEX
  8
gbo
 10
1.244700
 20
0.924200
  0
VERTEX
  8
gbo
 10
1.225700
 20
0.924200
  0
SEQEND
  8
gbo
  0
POLYLINE
  8
gbo
 62
3
 40
0.000000
 41
0.000000
 66
  1
  0
VERTEX
  8
gbo
 10
1.192700
 20
0.904200
  0
VERTEX
  8
gbo
 10
1.192700
 20
0.944200
  0
VERTEX
  8
gbo
 10
1.211700
 20
0.924200
  0
VERTEX
  8
gbo
 10
1.185700
 20
0.924200
  0
SEQEND
  8
gbo
  0
POLYLINE
  8
gbo
 62
3
 40
0.000000
 41
0.000000
 66
  1
  0
VERTEX
  8
gbo
 10
1.172700
 20
0.944200
  0
VERTEX
  8
gbo
 10
1.172700
 20
0.917200
  0
VERTEX
  8
gbo
 10
1.159700
 20
0.904200
  0
VERTEX
  8
gbo
 10
1.146700
 20
0.917200
  0
VERTEX
  8
gbo
 10
1.146700
 20
0.944200
  0
SEQEND
  8
gbo
  0
POLYLINE
  8
gbo
 62
3
 40
0.000000
 41
0.000000
 66
  1
  0
VERTEX
  8
gbo
 10
1.133700
 20
0.924200
  0
VERTEX
  8
gbo
 10
1.106700
 20
0.924200
  0
SEQEND
  8
gbo
  0
POLYLINE
  8
gbo
 62
3
 40
0.000000
 41
0.000000
 66
  1
  0
VERTEX
  8
gbo
 10
1.093700
 20
0.937200
  0
VERTEX
  8
gbo
 10
1.087700
 20
0.944200
  0
VERTEX
  8
gbo
 10
1.074700
 20
0.944200
  0
VERTEX
  8
gbo
 10
1.067700
 20
0.937200
  0
VERTEX
  8
gbo
 10
1.067700
 20
0.911200
  0
VERTEX
  8
gbo
 10
1.074700
 20
0.904200
  0
VERTEX
  8
gbo
 10
1.087700
 20
0.904200
  0
VERTEX
  8
gbo
 10
1.093700
 20
0.911200
  0
VERTEX
  8
gbo
 10
1.093700
 20
0.937200
  0
SEQEND
  8
gbo
  0
POLYLINE
  8
gbo
 62
3
 40
0.000000
 41
0.000000
 66
  1
  0
VERTEX
  8
gbo
 10
1.330300
 20
0.995800
  0
VERTEX
  8
gbo
 10
1.330300
 20
1.034800
  0
VERTEX
  8
gbo
 10
1.316300
 20
1.021800
  0
VERTEX
  8
gbo
 10
1.303300
 20
1.034800
  0
VERTEX
  8
gbo
 10
1.303300
 20
0.995800
  0
SEQEND
  8
gbo
  0
POLYLINE
  8
gbo
 62
3
 40
0.000000
 41
0.000000
 66
  1
  0
VERTEX
  8
gbo
 10
1.290300
 20
0.995800
  0
VERTEX
  8
gbo
 10
1.290300
 20
1.021800
  0
VERTEX
  8
gbo
 10
1.277300
 20
1.034800
  0
VERTEX
  8
gbo
 10
1.264300
 20
1.021800
  0
VERTEX
  8
gbo
 10
1.264300
 20
0.995800
  0
VERTEX
  8
gbo
 10
1.264300
 20
1.014800
  0
VERTEX
  8
gbo
 10
1.290300
 20
1.014800
  0
SEQEND
  8
gbo
  0
POLYLINE
  8
gbo
 62
3
 40
0.000000
 41
0.000000
 66
  1
  0
VERTEX
  8
gbo
 10
1.251300
 20
1.034800
  0
VERTEX
  8
gbo
 10
1.251300
 20
0.995800
  0
VERTEX
  8
gbo
 10
1.231300
 20
0.995800
  0
VERTEX
  8
gbo
 10
1.225300
 20
1.001800
  0
VERTEX
  8
gbo
 10
1.225300
 20
1.028800
  0
VERTEX
  8
gbo
 10
1.231300
 20
1.034800
  0
VERTEX
  8
gbo
 10
1.251300
 20
1.034800
  0
SEQEND
  8
gbo
  0
POLYLINE
  8
gbo
 62
3
 40
0.000000
 41
0.000000
 66
  1
  0
VERTEX
  8
gbo
 10
1.185300
 20
1.034800
  0
VERTEX
  8
gbo
 10
1.211300
 20
1.034800
  0
VERTEX
  8
gbo
 10
1.211300
 20
0.995800
  0
VERTEX
  8
gbo
 10
1.185300
 20
0.995800
  0
SEQEND
  8
gbo
  0
POLYLINE
  8
gbo
 62
3
 40
0.000000
 41
0.000000
 66
  1
  0
VERTEX
  8
gbo
 10
1.211300
 20
1.014800
  0
VERTEX
  8
gbo
 10
1.198300
 20
1.014800
  0
SEQEND
  8
gbo
  0
POLYLINE
  8
gbo
 62
3
 40
0.000000
 41
0.000000
 66
  1
  0
VERTEX
  8
gbo
 10
1.133300
 20
1.034800
  0
VERTEX
  8
gbo
 10
1.120300
 20
1.034800
  0
VERTEX
  8
gbo
 10
1.126300
 20
1.034800
  0
VERTEX
  8
gbo
 10
1.126300
 20
0.995800
  0
VERTEX
  8
gbo
 10
1.133300
 20
0.995800
  0
VERTEX
  8
gbo
 10
1.120300
 20
0.995800
  0
SEQEND
  8
gbo
  0
POLYLINE
  8
gbo
 62
3
 40
0.000000
 41
0.000000
 66
  1
  0
VERTEX
  8
gbo
 10
1.100300
 20
0.995800
  0
VERTEX
  8
gbo
 10
1.100300
 20
1.034800
  0
VERTEX
  8
gbo
 10
1.074300
 20
0.995800
  0
VERTEX
  8
gbo
 10
1.074300
 20
1.034800
  0
SEQEND
  8
gbo
  0
POLYLINE
  8
gbo
 62
3
 40
0.000000
 41
0.000000
 66
  1
  0
VERTEX
  8
gbo
 10
1.021300
 20
1.034800
  0
VERTEX
  8
gbo
 10
1.021300
 20
1.001800
  0
VERTEX
  8
gbo
 10
1.015300
 20
0.995800
  0
VERTEX
  8
gbo
 10
1.002300
 20
0.995800
  0
VERTEX
  8
gbo
 10
0.995300
 20
1.001800
  0
VERTEX
  8
gbo
 10
0.995300
 20
1.034800
  0
SEQEND
  8
gbo
  0
POLYLINE
  8
gbo
 62
3
 40
0.000000
 41
0.000000
 66
  1
  0
VERTEX
  8
gbo
 10
0.956300
 20
1.028800
  0
VERTEX
  8
gbo
 10
0.962300
 20
1.034800
  0
VERTEX
  8
gbo
 10
0.975300
 20
1.034800
  0
VERTEX
  8
gbo
 10
0.982300
 20
1.028800
  0
VERTEX
  8
gbo
 10
0.982300
 20
1.021800
  0
VERTEX
  8
gbo
 10
0.975300
 20
1.014800
  0
VERTEX
  8
gbo
 10
0.962300
 20
1.014800
  0
VERTEX
  8
gbo
 10
0.956300
 20
1.008800
  0
VERTEX
  8
gbo
 10
0.956300
 20
1.001800
  0
VERTEX
  8
gbo
 10
0.962300
 20
0.995800
  0
VERTEX
  8
gbo
 10
0.975300
 20
0.995800
  0
VERTEX
  8
gbo
 10
0.982300
 20
1.001800
  0
SEQEND
  8
gbo
  0
POLYLINE
  8
gbo
 62
3
 40
0.000000
 41
0.000000
 66
  1
  0
VERTEX
  8
gbo
 10
1.330700
 20
0.944200
  0
VERTEX
  8
gbo
 10
1.330700
 20
0.911200
  0
VERTEX
  8
gbo
 10
1.323700
 20
0.904200
  0
VERTEX
  8
gbo
 10
1.310700
 20
0.904200
  0
VERTEX
  8
gbo
 10
1.303700
 20
0.911200
  0
VERTEX
  8
gbo
 10
1.303700
 20
0.944200
  0
SEQEND
  8
gbo
  0
POLYLINE
  8
gbo
 62
3
 40
0.000000
 41
0.000000
 66
  1
  0
VERTEX
  8
gbo
 10
1.290700
 20
0.944200
  0
VERTEX
  8
gbo
 10
1.290700
 20
0.904200
  0
VERTEX
  8
gbo
 10
1.264700
 20
0.904200
  0
SEQEND
  8
gbo
  0
POLYLINE
  8
gbo
 62
3
 40
0.000000
 41
0.000000
 66
  1
  0
VERTEX
  8
gbo
 10
1.251700
 20
0.911200
  0
VERTEX
  8
gbo
 10
1.244700
 20
0.904200
  0
VERTEX
  8
gbo
 10
1.231700
 20
0.904200
  0
VERTEX
  8
gbo
 10
1.225700
 20
0.911200
  0
VERTEX
  8
gbo
 10
1.225700
 20
0.937200
  0
VERTEX
  8
gbo
 10
1.231700
 20
0.944200
  0
VERTEX
  8
gbo
 10
1.244700
 20
0.944200
  0
VERTEX
  8
gbo
 10
1.251700
 20
0.937200
  0
VERTEX
  8
gbo
 10
1.251700
 20
0.931200
  0
VERTEX
  8
gbo
 10
1.244700
 20
0.924200
  0
VERTEX
  8
gbo
 10
1.225700
 20
0.924200
  0
SEQEND
  8
gbo
  0
POLYLINE
  8
gbo
 62
3
 40
0.000000
 41
0.000000
 66
  1
  0
VERTEX
  8
gbo
 10
1.192700
 20
0.904200
  0
VERTEX
  8
gbo
 10
1.192700
 20
0.944200
  0
VERTEX
  8
gbo
 10
1.211700
 20
0.924200
  0
VERTEX
  8
gbo
 10
1.185700
 20
0.924200
  0
SEQEND
  8
gbo
  0
POLYLINE
  8
gbo
 62
3
 40
0.000000
 41
0.000000
 66
  1
  0
VERTEX
  8
gbo
 10
1.172700
 20
0.944200
  0
VERTEX
  8
gbo
 10
1.172700
 20
0.917200
  0
VERTEX
  8
gbo
 10
1.159700
 20
0.904200
  0
VERTEX
  8
gbo
 10
1.146700
 20
0.917200
  0
VERTEX
  8
gbo
 10
1.146700
 20
0.944200
  0
SEQEND
  8
gbo
  0
POLYLINE
  8
gbo
 62
3
 40
0.000000
 41
0.000000
 66
  1
  0
VERTEX
  8
gbo
 10
1.133700
 20
0.924200
  0
VERTEX
  8
gbo
 10
1.106700
 20
0.924200
  0
SEQEND
  8
gbo
  0
POLYLINE
  8
gbo
 62
3
 40
0.000000
 41
0.000000
 66
  1
  0
VERTEX
  8
gbo
 10
1.093700
 20
0.937200
  0
VERTEX
  8
gbo
 10
1.087700
 20
0.944200
  0
VERTEX
  8
gbo
 10
1.074700
 20
0.944200
  0
VERTEX
  8
gbo
 10
1.067700
 20
0.937200
  0
VERTEX
  8
gbo
 10
1.067700
 20
0.911200
  0
VERTEX
  8
gbo
 10
1.074700
 20
0.904200
  0
VERTEX
  8
gbo
 10
1.087700
 20
0.904200
  0
VERTEX
  8
gbo
 10
1.093700
 20
0.911200
  0
VERTEX
  8
gbo
 10
1.093700
 20
0.937200
  0
SEQEND
  8
gbo
  0
POLYLINE
  8
gbo
 62
3
 40
0.000000
 41
0.000000
 66
  1
  0
VERTEX
  8
gbo
 10
1.330300
 20
0.995800
  0
VERTEX
  8
gbo
 10
1.330300
 20
1.034800
  0
VERTEX
  8
gbo
 10
1.316300
 20
1.021800
  0
VERTEX
  8
gbo
 10
1.303300
 20
1.034800
  0
VERTEX
  8
gbo
 10
1.303300
 20
0.995800
  0
SEQEND
  8
gbo
  0
POLYLINE
  8
gbo
 62
3
 40
0.000000
 41
0.000000
 66
  1
  0
VERTEX
  8
gbo
 10
1.290300
 20
0.995800
  0
VERTEX
  8
gbo
 10
1.290300
 20
1.021800
  0
VERTEX
  8
gbo
 10
1.277300
 20
1.034800
  0
VERTEX
  8
gbo
 10
1.264300
 20
1.021800
  0
VERTEX
  8
gbo
 10
1.264300
 20
0.995800
  0
VERTEX
  8
gbo
 10
1.264300
 20
1.014800
  0
VERTEX
  8
gbo
 10
1.290300
 20
1.014800
  0
SEQEND
  8
gbo
  0
POLYLINE
  8
gbo
 62
3
 40
0.000000
 41
0.000000
 66
  1
  0
VERTEX
  8
gbo
 10
1.251300
 20
1.034800
  0
VERTEX
  8
gbo
 10
1.251300
 20
0.995800
  0
VERTEX
  8
gbo
 10
1.231300
 20
0.995800
  0
VERTEX
  8
gbo
 10
1.225300
 20
1.001800
  0
VERTEX
  8
gbo
 10
1.225300
 20
1.028800
  0
VERTEX
  8
gbo
 10
1.231300
 20
1.034800
  0
VERTEX
  8
gbo
 10
1.251300
 20
1.034800
  0
SEQEND
  8
gbo
  0
POLYLINE
  8
gbo
 62
3
 40
0.000000
 41
0.000000
 66
  1
  0
VERTEX
  8
gbo
 10
1.185300
 20
1.034800
  0
VERTEX
  8
gbo
 10
1.211300
 20
1.034800
  0
VERTEX
  8
gbo
 10
1.211300
 20
0.995800
  0
VERTEX
  8
gbo
 10
1.185300
 20
0.995800
  0
SEQEND
  8
gbo
  0
POLYLINE
  8
gbo
 62
3
 40
0.000000
 41
0.000000
 66
  1
  0
VERTEX
  8
gbo
 10
1.211300
 20
1.014800
  0
VERTEX
  8
gbo
 10
1.198300
 20
1.014800
  0
SEQEND
  8
gbo
  0
POLYLINE
  8
gbo
 62
3
 40
0.000000
 41
0.000000
 66
  1
  0
VERTEX
  8
gbo
 10
1.133300
 20
1.034800
  0
VERTEX
  8
gbo
 10
1.120300
 20
1.034800
  0
VERTEX
  8
gbo
 10
1.126300
 20
1.034800
  0
VERTEX
  8
gbo
 10
1.126300
 20
0.995800
  0
VERTEX
  8
gbo
 10
1.133300
 20
0.995800
  0
VERTEX
  8
gbo
 10
1.120300
 20
0.995800
  0
SEQEND
  8
gbo
  0
POLYLINE
  8
gbo
 62
3
 40
0.000000
 41
0.000000
 66
  1
  0
VERTEX
  8
gbo
 10
1.100300
 20
0.995800
  0
VERTEX
  8
gbo
 10
1.100300
 20
1.034800
  0
VERTEX
  8
gbo
 10
1.074300
 20
0.995800
  0
VERTEX
  8
gbo
 10
1.074300
 20
1.034800
  0
SEQEND
  8
gbo
  0
POLYLINE
  8
gbo
 62
3
 40
0.000000
 41
0.000000
 66
  1
  0
VERTEX
  8
gbo
 10
1.021300
 20
1.034800
  0
VERTEX
  8
gbo
 10
1.021300
 20
1.001800
  0
VERTEX
  8
gbo
 10
1.015300
 20
0.995800
  0
VERTEX
  8
gbo
 10
1.002300
 20
0.995800
  0
VERTEX
  8
gbo
 10
0.995300
 20
1.001800
  0
VERTEX
  8
gbo
 10
0.995300
 20
1.034800
  0
SEQEND
  8
gbo
  0
POLYLINE
  8
gbo
 62
3
 40
0.000000
 41
0.000000
 66
  1
  0
VERTEX
  8
gbo
 10
0.956300
 20
1.028800
  0
VERTEX
  8
gbo
 10
0.962300
 20
1.034800
  0
VERTEX
  8
gbo
 10
0.975300
 20
1.034800
  0
VERTEX
  8
gbo
 10
0.982300
 20
1.028800
  0
VERTEX
  8
gbo
 10
0.982300
 20
1.021800
  0
VERTEX
  8
gbo
 10
0.975300
 20
1.014800
  0
VERTEX
  8
gbo
 10
0.962300
 20
1.014800
  0
VERTEX
  8
gbo
 10
0.956300
 20
1.008800
  0
VERTEX
  8
gbo
 10
0.956300
 20
1.001800
  0
VERTEX
  8
gbo
 10
0.962300
 20
0.995800
  0
VERTEX
  8
gbo
 10
0.975300
 20
0.995800
  0
VERTEX
  8
gbo
 10
0.982300
 20
1.001800
  0
SEQEND
  8
gbo
  0
POLYLINE
  8
gbo
 62
3
 40
0.000000
 41
0.000000
 66
  1
  0
VERTEX
  8
gbo
 10
0.750000
 20
0.800000
  0
VERTEX
  8
gbo
 10
0.710000
 20
0.800000
  0
SEQEND
  8
gbo
  0
POLYLINE
  8
gbo
 62
3
 40
0.000000
 41
0.000000
 66
  1
  0
VERTEX
  8
gbo
 10
0.855000
 20
0.780500
  0
VERTEX
  8
gbo
 10
0.855000
 20
0.820500
  0
VERTEX
  8
gbo
 10
0.835000
 20
0.840500
  0
VERTEX
  8
gbo
 10
0.815000
 20
0.820500
  0
VERTEX
  8
gbo
 10
0.815000
 20
0.780500
  0
VERTEX
  8
gbo
 10
0.815000
 20
0.810500
  0
VERTEX
  8
gbo
 10
0.855000
 20
0.810500
  0
SEQEND
  8
gbo
  0
POLYLINE
  8
gbo
 62
3
 40
0.000000
 41
0.000000
 66
  1
  0
VERTEX
  8
gbo
 10
1.311000
 20
0.830500
  0
VERTEX
  8
gbo
 10
1.321000
 20
0.840500
  0
VERTEX
  8
gbo
 10
1.341000
 20
0.840500
  0
VERTEX
  8
gbo
 10
1.351000
 20
0.830500
  0
VERTEX
  8
gbo
 10
1.351000
 20
0.820500
  0
VERTEX
  8
gbo
 10
1.341000
 20
0.810500
  0
VERTEX
  8
gbo
 10
1.321000
 20
0.810500
  0
VERTEX
  8
gbo
 10
1.311000
 20
0.800500
  0
VERTEX
  8
gbo
 10
1.311000
 20
0.790500
  0
VERTEX
  8
gbo
 10
1.321000
 20
0.780500
  0
VERTEX
  8
gbo
 10
1.341000
 20
0.780500
  0
VERTEX
  8
gbo
 10
1.351000
 20
0.790500
  0
SEQEND
  8
gbo
  0
POLYLINE
  8
gbo
 62
3
 40
0.000000
 41
0.000000
 66
  1
  0
VERTEX
  8
gbo
 10
1.291000
 20
0.840500
  0
VERTEX
  8
gbo
 10
1.291000
 20
0.800500
  0
VERTEX
  8
gbo
 10
1.271000
 20
0.780500
  0
VERTEX
  8
gbo
 10
1.251000
 20
0.800500
  0
VERTEX
  8
gbo
 10
1.251000
 20
0.840500
  0
SEQEND
  8
gbo
  0
POLYLINE
  8
gbo
 62
3
 40
0.000000
 41
0.000000
 66
  1
  0
VERTEX
  8
gbo
 10
1.191100
 20
0.840500
  0
VERTEX
  8
gbo
 10
1.211000
 20
0.830500
  0
VERTEX
  8
gbo
 10
1.231000
 20
0.810500
  0
VERTEX
  8
gbo
 10
1.231000
 20
0.790500
  0
VERTEX
  8
gbo
 10
1.221000
 20
0.780500
  0
VERTEX
  8
gbo
 10
1.201000
 20
0.780500
  0
VERTEX
  8
gbo
 10
1.191100
 20
0.790500
  0
VERTEX
  8
gbo
 10
1.191100
 20
0.800500
  0
VERTEX
  8
gbo
 10
1.201000
 20
0.810500
  0
VERTEX
  8
gbo
 10
1.231000
 20
0.810500
  0
SEQEND
  8
gbo
  0
POLYLINE
  8
gbo
 62
3
 40
0.000000
 41
0.000000
 66
  1
  0
VERTEX
  8
gbo
 10
1.171100
 20
0.830500
  0
VERTEX
  8
gbo
 10
1.161100
 20
0.840500
  0
VERTEX
  8
gbo
 10
1.141100
 20
0.840500
  0
VERTEX
  8
gbo
 10
1.131100
 20
0.830500
  0
VERTEX
  8
gbo
 10
1.131100
 20
0.790500
  0
VERTEX
  8
gbo
 10
1.141100
 20
0.780500
  0
VERTEX
  8
gbo
 10
1.161100
 20
0.780500
  0
VERTEX
  8
gbo
 10
1.171100
 20
0.790500
  0
VERTEX
  8
gbo
 10
1.171100
 20
0.830500
  0
SEQEND
  8
gbo
  0
POLYLINE
  8
gbo
 62
3
 40
0.000000
 41
0.000000
 66
  1
  0
VERTEX
  8
gbo
 10
1.111100
 20
0.830500
  0
VERTEX
  8
gbo
 10
1.101100
 20
0.840500
  0
VERTEX
  8
gbo
 10
1.081100
 20
0.840500
  0
VERTEX
  8
gbo
 10
1.071100
 20
0.830500
  0
VERTEX
  8
gbo
 10
1.071100
 20
0.790500
  0
VERTEX
  8
gbo
 10
1.081100
 20
0.780500
  0
VERTEX
  8
gbo
 10
1.101100
 20
0.780500
  0
VERTEX
  8
gbo
 10
1.111100
 20
0.790500
  0
VERTEX
  8
gbo
 10
1.111100
 20
0.830500
  0
SEQEND
  8
gbo
  0
POLYLINE
  8
gbo
 62
3
 40
0.000000
 41
0.000000
 66
  1
  0
VERTEX
  8
gbo
 10
1.011100
 20
0.840500
  0
VERTEX
  8
gbo
 10
1.051100
 20
0.840500
  0
VERTEX
  8
gbo
 10
1.051100
 20
0.810500
  0
VERTEX
  8
gbo
 10
1.031100
 20
0.820500
  0
VERTEX
  8
gbo
 10
1.021100
 20
0.820500
  0
VERTEX
  8
gbo
 10
1.011100
 20
0.810500
  0
VERTEX
  8
gbo
 10
1.011100
 20
0.790500
  0
VERTEX
  8
gbo
 10
1.021100
 20
0.780500
  0
VERTEX
  8
gbo
 10
1.041100
 20
0.780500
  0
VERTEX
  8
gbo
 10
1.051100
 20
0.790500
  0
SEQEND
  8
gbo
  0
POLYLINE
  8
gbo
 62
3
 40
0.000000
 41
0.000000
 66
  1
  0
VERTEX
  8
gbo
 10
0.991100
 20
0.790500
  0
VERTEX
  8
gbo
 10
0.981100
 20
0.780500
  0
VERTEX
  8
gbo
 10
0.961100
 20
0.780500
  0
VERTEX
  8
gbo
 10
0.951100
 20
0.790500
  0
VERTEX
  8
gbo
 10
0.951100
 20
0.830500
  0
VERTEX
  8
gbo
 10
0.961100
 20
0.840500
  0
VERTEX
  8
gbo
 10
0.981100
 20
0.840500
  0
VERTEX
  8
gbo
 10
0.991100
 20
0.830500
  0
VERTEX
  8
gbo
 10
0.991100
 20
0.820500
  0
VERTEX
  8
gbo
 10
0.981100
 20
0.810500
  0
VERTEX
  8
gbo
 10
0.951100
 20
0.810500
  0
SEQEND
  8
gbo
  0
POLYLINE
  8
gbo
 62
3
 40
0.000000
 41
0.000000
 66
  1
  0
VERTEX
  8
gbo
 10
0.901100
 20
0.780500
  0
VERTEX
  8
gbo
 10
0.901100
 20
0.840500
  0
VERTEX
  8
gbo
 10
0.931100
 20
0.810500
  0
VERTEX
  8
gbo
 10
0.891100
 20
0.810500
  0
SEQEND
  8
gbo
  0
POLYLINE
  8
gbo
 62
3
 40
0.000000
 41
0.000000
 66
  1
  0
VERTEX
  8
gbo
 10
0.577000
 20
-0.798500
  0
VERTEX
  8
gbo
 10
0.577000
 20
-0.858500
  0
VERTEX
  8
gbo
 10
0.607000
 20
-0.858500
  0
VERTEX
  8
gbo
 10
0.617000
 20
-0.848500
  0
VERTEX
  8
gbo
 10
0.617000
 20
-0.838500
  0
VERTEX
  8
gbo
 10
0.607000
 20
-0.828500
  0
VERTEX
  8
gbo
 10
0.577000
 20
-0.828500
  0
VERTEX
  8
gbo
 10
0.607000
 20
-0.828500
  0
VERTEX
  8
gbo
 10
0.617000
 20
-0.818500
  0
VERTEX
  8
gbo
 10
0.617000
 20
-0.808500
  0
VERTEX
  8
gbo
 10
0.607000
 20
-0.798500
  0
VERTEX
  8
gbo
 10
0.577000
 20
-0.798500
  0
SEQEND
  8
gbo
  0
POLYLINE
  8
gbo
 62
3
 40
0.000000
 41
0.000000
 66
  1
  0
VERTEX
  8
gbo
 10
0.647000
 20
-0.858500
  0
VERTEX
  8
gbo
 10
0.667000
 20
-0.858500
  0
VERTEX
  8
gbo
 10
0.677000
 20
-0.848500
  0
VERTEX
  8
gbo
 10
0.677000
 20
-0.828500
  0
VERTEX
  8
gbo
 10
0.667000
 20
-0.818500
  0
VERTEX
  8
gbo
 10
0.647000
 20
-0.818500
  0
VERTEX
  8
gbo
 10
0.637000
 20
-0.828500
  0
VERTEX
  8
gbo
 10
0.637000
 20
-0.848500
  0
VERTEX
  8
gbo
 10
0.647000
 20
-0.858500
  0
SEQEND
  8
gbo
  0
POLYLINE
  8
gbo
 62
3
 40
0.000000
 41
0.000000
 66
  1
  0
VERTEX
  8
gbo
 10
0.707000
 20
-0.808500
  0
VERTEX
  8
gbo
 10
0.707000
 20
-0.818500
  0
VERTEX
  8
gbo
 10
0.697000
 20
-0.818500
  0
VERTEX
  8
gbo
 10
0.717000
 20
-0.818500
  0
VERTEX
  8
gbo
 10
0.707000
 20
-0.818500
  0
VERTEX
  8
gbo
 10
0.707000
 20
-0.848500
  0
VERTEX
  8
gbo
 10
0.717000
 20
-0.858500
  0
SEQEND
  8
gbo
  0
POLYLINE
  8
gbo
 62
3
 40
0.000000
 41
0.000000
 66
  1
  0
VERTEX
  8
gbo
 10
0.756900
 20
-0.808500
  0
VERTEX
  8
gbo
 10
0.756900
 20
-0.818500
  0
VERTEX
  8
gbo
 10
0.746900
 20
-0.818500
  0
VERTEX
  8
gbo
 10
0.766900
 20
-0.818500
  0
VERTEX
  8
gbo
 10
0.756900
 20
-0.818500
  0
VERTEX
  8
gbo
 10
0.756900
 20
-0.848500
  0
VERTEX
  8
gbo
 10
0.766900
 20
-0.858500
  0
SEQEND
  8
gbo
  0
POLYLINE
  8
gbo
 62
3
 40
0.000000
 41
0.000000
 66
  1
  0
VERTEX
  8
gbo
 10
0.806900
 20
-0.858500
  0
VERTEX
  8
gbo
 10
0.826900
 20
-0.858500
  0
VERTEX
  8
gbo
 10
0.836900
 20
-0.848500
  0
VERTEX
  8
gbo
 10
0.836900
 20
-0.828500
  0
VERTEX
  8
gbo
 10
0.826900
 20
-0.818500
  0
VERTEX
  8
gbo
 10
0.806900
 20
-0.818500
  0
VERTEX
  8
gbo
 10
0.796900
 20
-0.828500
  0
VERTEX
  8
gbo
 10
0.796900
 20
-0.848500
  0
VERTEX
  8
gbo
 10
0.806900
 20
-0.858500
  0
SEQEND
  8
gbo
  0
POLYLINE
  8
gbo
 62
3
 40
0.000000
 41
0.000000
 66
  1
  0
VERTEX
  8
gbo
 10
0.856900
 20
-0.858500
  0
VERTEX
  8
gbo
 10
0.856900
 20
-0.818500
  0
VERTEX
  8
gbo
 10
0.866900
 20
-0.818500
  0
VERTEX
  8
gbo
 10
0.876900
 20
-0.828500
  0
VERTEX
  8
gbo
 10
0.876900
 20
-0.858500
  0
VERTEX
  8
gbo
 10
0.876900
 20
-0.828500
  0
VERTEX
  8
gbo
 10
0.886900
 20
-0.818500
  0
VERTEX
  8
gbo
 10
0.896900
 20
-0.828500
  0
VERTEX
  8
gbo
 10
0.896900
 20
-0.858500
  0
SEQEND
  8
gbo
  0
POLYLINE
  8
gbo
 62
3
 40
0.000000
 41
0.000000
 66
  1
  0
VERTEX
  8
gbo
 10
1.006900
 20
-0.798500
  0
VERTEX
  8
gbo
 10
0.986900
 20
-0.798500
  0
VERTEX
  8
gbo
 10
0.976900
 20
-0.808500
  0
VERTEX
  8
gbo
 10
0.976900
 20
-0.848500
  0
VERTEX
  8
gbo
 10
0.986900
 20
-0.858500
  0
VERTEX
  8
gbo
 10
1.006900
 20
-0.858500
  0
VERTEX
  8
gbo
 10
1.016900
 20
-0.848500
  0
VERTEX
  8
gbo
 10
1.016900
 20
-0.808500
  0
VERTEX
  8
gbo
 10
1.006900
 20
-0.798500
  0
SEQEND
  8
gbo
  0
POLYLINE
  8
gbo
 62
3
 40
0.000000
 41
0.000000
 66
  1
  0
VERTEX
  8
gbo
 10
1.036900
 20
-0.818500
  0
VERTEX
  8
gbo
 10
1.056800
 20
-0.858500
  0
VERTEX
  8
gbo
 10
1.076800
 20
-0.818500
  0
SEQEND
  8
gbo
  0
POLYLINE
  8
gbo
 62
3
 40
0.000000
 41
0.000000
 66
  1
  0
VERTEX
  8
gbo
 10
1.126800
 20
-0.858500
  0
VERTEX
  8
gbo
 10
1.106800
 20
-0.858500
  0
VERTEX
  8
gbo
 10
1.096800
 20
-0.848500
  0
VERTEX
  8
gbo
 10
1.096800
 20
-0.828500
  0
VERTEX
  8
gbo
 10
1.106800
 20
-0.818500
  0
VERTEX
  8
gbo
 10
1.126800
 20
-0.818500
  0
VERTEX
  8
gbo
 10
1.136800
 20
-0.828500
  0
VERTEX
  8
gbo
 10
1.136800
 20
-0.838500
  0
VERTEX
  8
gbo
 10
1.096800
 20
-0.838500
  0
SEQEND
  8
gbo
  0
POLYLINE
  8
gbo
 62
3
 40
0.000000
 41
0.000000
 66
  1
  0
VERTEX
  8
gbo
 10
1.156800
 20
-0.818500
  0
VERTEX
  8
gbo
 10
1.156800
 20
-0.858500
  0
VERTEX
  8
gbo
 10
1.156800
 20
-0.838500
  0
VERTEX
  8
gbo
 10
1.166800
 20
-0.828500
  0
VERTEX
  8
gbo
 10
1.176800
 20
-0.818500
  0
VERTEX
  8
gbo
 10
1.186800
 20
-0.818500
  0
SEQEND
  8
gbo
  0
POLYLINE
  8
gbo
 62
3
 40
0.000000
 41
0.000000
 66
  1
  0
VERTEX
  8
gbo
 10
1.216800
 20
-0.858500
  0
VERTEX
  8
gbo
 10
1.236800
 20
-0.858500
  0
VERTEX
  8
gbo
 10
1.226800
 20
-0.858500
  0
VERTEX
  8
gbo
 10
1.226800
 20
-0.798500
  0
VERTEX
  8
gbo
 10
1.216800
 20
-0.798500
  0
SEQEND
  8
gbo
  0
POLYLINE
  8
gbo
 62
3
 40
0.000000
 41
0.000000
 66
  1
  0
VERTEX
  8
gbo
 10
1.276800
 20
-0.818500
  0
VERTEX
  8
gbo
 10
1.296800
 20
-0.818500
  0
VERTEX
  8
gbo
 10
1.306800
 20
-0.828500
  0
VERTEX
  8
gbo
 10
1.306800
 20
-0.858500
  0
VERTEX
  8
gbo
 10
1.276800
 20
-0.858500
  0
VERTEX
  8
gbo
 10
1.266800
 20
-0.848500
  0
VERTEX
  8
gbo
 10
1.276800
 20
-0.838500
  0
VERTEX
  8
gbo
 10
1.306800
 20
-0.838500
  0
SEQEND
  8
gbo
  0
POLYLINE
  8
gbo
 62
3
 40
0.000000
 41
0.000000
 66
  1
  0
VERTEX
  8
gbo
 10
1.326800
 20
-0.818500
  0
VERTEX
  8
gbo
 10
1.326800
 20
-0.848500
  0
VERTEX
  8
gbo
 10
1.336800
 20
-0.858500
  0
VERTEX
  8
gbo
 10
1.366700
 20
-0.858500
  0
VERTEX
  8
gbo
 10
1.366700
 20
-0.868500
  0
VERTEX
  8
gbo
 10
1.356700
 20
-0.878500
  0
VERTEX
  8
gbo
 10
1.346800
 20
-0.878500
  0
SEQEND
  8
gbo
  0
POLYLINE
  8
gbo
 62
3
 40
0.000000
 41
0.000000
 66
  1
  0
VERTEX
  8
gbo
 10
1.366700
 20
-0.858500
  0
VERTEX
  8
gbo
 10
1.366700
 20
-0.818500
  0
SEQEND
  8
gbo
  0
INSERT
  8
gbs
  2
D59
 10
0.107000
 20
0.748000
 41
1.0
 42
1.0
 43
1.0
 50
0.0
  0
INSERT
  8
gbs
  2
D59
 10
0.107000
 20
1.093000
 41
1.0
 42
1.0
 43
1.0
 50
0.0
  0
INSERT
  8
gbs
  2
D62
 10
1.812000
 20
1.052000
 41
1.0
 42
1.0
 43
1.0
 50
0.0
  0
INSERT
  8
gbs
  2
D62
 10
1.552000
 20
1.052000
 41
1.0
 42
1.0
 43
1.0
 50
0.0
  0
INSERT
  8
gbs
  2
D62
 10
1.552000
 20
0.792000
 41
1.0
 42
1.0
 43
1.0
 50
0.0
  0
INSERT
  8
gbs
  2
D62
 10
1.812000
 20
0.792000
 41
1.0
 42
1.0
 43
1.0
 50
0.0
  0
INSERT
  8
gbs
  2
D62
 10
1.194000
 20
0.191000
 41
1.0
 42
1.0
 43
1.0
 50
0.0
  0
INSERT
  8
gbs
  2
D62
 10
1.194000
 20
0.451000
 41
1.0
 42
1.0
 43
1.0
 50
0.0
  0
INSERT
  8
gbs
  2
D62
 10
0.934000
 20
0.451000
 41
1.0
 42
1.0
 43
1.0
 50
0.0
  0
INSERT
  8
gbs
  2
D62
 10
0.934000
 20
0.191000
 41
1.0
 42
1.0
 43
1.0
 50
0.0
  0
INSERT
  8
gbs
  2
D63
 10
1.682000
 20
0.922000
 41
1.0
 42
1.0
 43
1.0
 50
0.0
  0
INSERT
  8
gbs
  2
D63
 10
1.064000
 20
0.321000
 41
1.0
 42
1.0
 43
1.0
 50
0.0
  0
INSERT
  8
gbs
  2
D63
 10
0.671000
 20
1.424000
 41
1.0
 42
1.0
 43
1.0
 50
0.0
  0
INSERT
  8
gbs
  2
D63
 10
1.361000
 20
1.419000
 41
1.0
 42
1.0
 43
1.0
 50
0.0
  0
INSERT
  8
gbs
  2
D64
 10
0.193000
 20
0.197000
 41
1.0
 42
1.0
 43
1.0
 50
0.0
  0
INSERT
  8
gbs
  2
D64
 10
1.817000
 20
1.970000
 41
1.0
 42
1.0
 43
1.0
 50
0.0
  0
INSERT
  8
gbs
  2
D64
 10
0.192000
 20
1.975000
 41
1.0
 42
1.0
 43
1.0
 50
0.0
  0
INSERT
  8
gbs
  2
D64
 10
1.816000
 20
0.195000
 41
1.0
 42
1.0
 43
1.0
 50
0.0
  0
INSERT
  8
gbs
  2
D65
 10
0.671000
 20
2.027000
 41
1.0
 42
1.0
 43
1.0
 50
0.0
  0
INSERT
  8
gbs
  2
D65
 10
1.361000
 20
2.022000
 41
1.0
 42
1.0
 43
1.0
 50
0.0
  0
INSERT
  8
gbs
  2
D66
 10
0.765000
 20
0.421000
 41
1.0
 42
1.0
 43
1.0
 50
0.0
  0
INSERT
  8
gbs
  2
D67
 10
0.665000
 20
0.421000
 41
1.0
 42
1.0
 43
1.0
 50
0.0
  0
INSERT
  8
gbs
  2
D67
 10
0.765000
 20
0.321000
 41
1.0
 42
1.0
 43
1.0
 50
0.0
  0
INSERT
  8
gbs
  2
D67
 10
0.665000
 20
0.321000
 41
1.0
 42
1.0
 43
1.0
 50
0.0
  0
INSERT
  8
gbs
  2
D67
 10
0.765000
 20
0.221000
 41
1.0
 42
1.0
 43
1.0
 50
0.0
  0
INSERT
  8
gbs
  2
D67
 10
0.665000
 20
0.221000
 41
1.0
 42
1.0
 43
1.0
 50
0.0
  0
INSERT
  8
gbs
  2
D68
 10
0.242000
 20
1.093000
 41
1.0
 42
1.0
 43
1.0
 50
0.0
  0
INSERT
  8
gbs
  2
D68
 10
0.242000
 20
0.748000
 41
1.0
 42
1.0
 43
1.0
 50
0.0
  0
POLYLINE
  8
gko
 62
9
 40
0.000000
 41
0.000000
 66
  1
  0
VERTEX
  8
gko
 10
-0.001000
 20
2.165000
  0
VERTEX
  8
gko
 10
2.003000
 20
2.165000
  0
SEQEND
  8
gko
  0
POLYLINE
  8
gko
 62
9
 40
0.000000
 41
0.000000
 66
  1
  0
VERTEX
  8
gko
 10
2.003000
 20
0.000000
  0
VERTEX
  8
gko
 10
2.003000
 20
2.165000
  0
SEQEND
  8
gko
  0
POLYLINE
  8
gko
 62
9
 40
0.000000
 41
0.000000
 66
  1
  0
VERTEX
  8
gko
 10
0.000000
 20
0.000000
  0
VERTEX
  8
gko
 10
2.003000
 20
0.000000
  0
SEQEND
  8
gko
  0
POLYLINE
  8
gko
 62
9
 40
0.000000
 41
0.000000
 66
  1
  0
VERTEX
  8
gko
 10
-0.001000
 20
2.165000
  0
VERTEX
  8
gko
 10
0.000000
 20
0.000000
  0
SEQEND
  8
gko
  0
POLYLINE
  8
gm1
 62
1
 40
0.000000
 41
0.000000
 66
  1
  0
VERTEX
  8
gm1
 10
-0.097000
 20
2.165200
  0
VERTEX
  8
gm1
 10
-0.087000
 20
2.165200
  0
SEQEND
  8
gm1
  0
POLYLINE
  8
gm1
 62
1
 40
0.000000
 41
0.000000
 66
  1
  0
VERTEX
  8
gm1
 10
-0.107000
 20
0.000000
  0
VERTEX
  8
gm1
 10
-0.015000
 20
0.000000
  0
SEQEND
  8
gm1
  0
POLYLINE
  8
gm1
 62
1
 40
0.000000
 41
0.000000
 66
  1
  0
VERTEX
  8
gm1
 10
-0.097000
 20
1.272500
  0
VERTEX
  8
gm1
 10
-0.097000
 20
2.165200
  0
SEQEND
  8
gm1
  0
POLYLINE
  8
gm1
 62
1
 40
0.000000
 41
0.000000
 66
  1
  0
VERTEX
  8
gm1
 10
-0.097000
 20
0.000000
  0
VERTEX
  8
gm1
 10
-0.097000
 20
0.860700
  0
SEQEND
  8
gm1
  0
POLYLINE
  8
gm1
 62
1
 40
0.000000
 41
0.000000
 66
  1
  0
VERTEX
  8
gm1
 10
-0.117000
 20
2.105200
  0
VERTEX
  8
gm1
 10
-0.097000
 20
2.165200
  0
VERTEX
  8
gm1
 10
-0.077000
 20
2.105200
  0
SEQEND
  8
gm1
  0
POLYLINE
  8
gm1
 62
1
 40
0.000000
 41
0.000000
 66
  1
  0
VERTEX
  8
gm1
 10
-0.097000
 20
0.000000
  0
VERTEX
  8
gm1
 10
-0.077000
 20
0.060000
  0
SEQEND
  8
gm1
  0
POLYLINE
  8
gm1
 62
1
 40
0.000000
 41
0.000000
 66
  1
  0
VERTEX
  8
gm1
 10
-0.117000
 20
0.060000
  0
VERTEX
  8
gm1
 10
-0.097000
 20
0.000000
  0
SEQEND
  8
gm1
  0
POLYLINE
  8
gm1
 62
1
 40
0.000000
 41
0.000000
 66
  1
  0
VERTEX
  8
gm1
 10
2.003600
 20
-0.129200
  0
VERTEX
  8
gm1
 10
2.003600
 20
-0.055000
  0
SEQEND
  8
gm1
  0
POLYLINE
  8
gm1
 62
1
 40
0.000000
 41
0.000000
 66
  1
  0
VERTEX
  8
gm1
 10
0.000000
 20
-0.075000
  0
VERTEX
  8
gm1
 10
0.000000
 20
-0.015000
  0
SEQEND
  8
gm1
  0
POLYLINE
  8
gm1
 62
1
 40
0.000000
 41
0.000000
 66
  1
  0
VERTEX
  8
gm1
 10
1.196700
 20
-0.065000
  0
VERTEX
  8
gm1
 10
2.003600
 20
-0.065000
  0
SEQEND
  8
gm1
  0
POLYLINE
  8
gm1
 62
1
 40
0.000000
 41
0.000000
 66
  1
  0
VERTEX
  8
gm1
 10
0.000000
 20
-0.065000
  0
VERTEX
  8
gm1
 10
0.774900
 20
-0.065000
  0
SEQEND
  8
gm1
  0
POLYLINE
  8
gm1
 62
1
 40
0.000000
 41
0.000000
 66
  1
  0
VERTEX
  8
gm1
 10
1.943600
 20
-0.045000
  0
VERTEX
  8
gm1
 10
2.003600
 20
-0.065000
  0
SEQEND
  8
gm1
  0
POLYLINE
  8
gm1
 62
1
 40
0.000000
 41
0.000000
 66
  1
  0
VERTEX
  8
gm1
 10
1.943600
 20
-0.085000
  0
VERTEX
  8
gm1
 10
2.003600
 20
-0.065000
  0
SEQEND
  8
gm1
  0
POLYLINE
  8
gm1
 62
1
 40
0.000000
 41
0.000000
 66
  1
  0
VERTEX
  8
gm1
 10
0.000000
 20
-0.065000
  0
VERTEX
  8
gm1
 10
0.060000
 20
-0.085000
  0
SEQEND
  8
gm1
  0
POLYLINE
  8
gm1
 62
1
 40
0.000000
 41
0.000000
 66
  1
  0
VERTEX
  8
gm1
 10
0.000000
 20
-0.065000
  0
VERTEX
  8
gm1
 10
0.060000
 20
-0.045000
  0
SEQEND
  8
gm1
  0
POLYLINE
  8
gm1
 62
1
 40
0.000000
 41
0.000000
 66
  1
  0
VERTEX
  8
gm1
 10
0.000000
 20
0.000000
  0
VERTEX
  8
gm1
 10
2.003000
 20
0.000000
  0
VERTEX
  8
gm1
 10
2.003000
 20
2.165000
  0
SEQEND
  8
gm1
  0
POLYLINE
  8
gm1
 62
1
 40
0.000000
 41
0.000000
 66
  1
  0
VERTEX
  8
gm1
 10
0.000000
 20
2.165000
  0
VERTEX
  8
gm1
 10
2.003000
 20
2.165000
  0
SEQEND
  8
gm1
  0
POLYLINE
  8
gm1
 62
1
 40
0.000000
 41
0.000000
 66
  1
  0
VERTEX
  8
gm1
 10
0.000000
 20
0.000000
  0
VERTEX
  8
gm1
 10
0.000000
 20
2.165000
  0
SEQEND
  8
gm1
  0
POLYLINE
  8
gm1
 62
1
 40
0.000000
 41
0.000000
 66
  1
  0
VERTEX
  8
gm1
 10
0.577000
 20
-0.858500
  0
VERTEX
  8
gm1
 10
0.577000
 20
-0.798500
  0
VERTEX
  8
gm1
 10
0.597000
 20
-0.818500
  0
VERTEX
  8
gm1
 10
0.617000
 20
-0.798500
  0
VERTEX
  8
gm1
 10
0.617000
 20
-0.858500
  0
SEQEND
  8
gm1
  0
POLYLINE
  8
gm1
 62
1
 40
0.000000
 41
0.000000
 66
  1
  0
VERTEX
  8
gm1
 10
0.637000
 20
-0.858500
  0
VERTEX
  8
gm1
 10
0.657000
 20
-0.858500
  0
VERTEX
  8
gm1
 10
0.647000
 20
-0.858500
  0
VERTEX
  8
gm1
 10
0.647000
 20
-0.798500
  0
VERTEX
  8
gm1
 10
0.637000
 20
-0.808500
  0
SEQEND
  8
gm1
  0
POLYLINE
  8
gm1
 62
1
 40
0.000000
 41
0.000000
 66
  1
  0
VERTEX
  8
gm1
 10
0.746900
 20
-0.798500
  0
VERTEX
  8
gm1
 10
0.746900
 20
-0.858500
  0
VERTEX
  8
gm1
 10
0.776900
 20
-0.858500
  0
VERTEX
  8
gm1
 10
0.786900
 20
-0.848500
  0
VERTEX
  8
gm1
 10
0.786900
 20
-0.838500
  0
VERTEX
  8
gm1
 10
0.776900
 20
-0.828500
  0
VERTEX
  8
gm1
 10
0.746900
 20
-0.828500
  0
VERTEX
  8
gm1
 10
0.776900
 20
-0.828500
  0
VERTEX
  8
gm1
 10
0.786900
 20
-0.818500
  0
VERTEX
  8
gm1
 10
0.786900
 20
-0.808500
  0
VERTEX
  8
gm1
 10
0.776900
 20
-0.798500
  0
VERTEX
  8
gm1
 10
0.746900
 20
-0.798500
  0
SEQEND
  8
gm1
  0
POLYLINE
  8
gm1
 62
1
 40
0.000000
 41
0.000000
 66
  1
  0
VERTEX
  8
gm1
 10
0.816900
 20
-0.858500
  0
VERTEX
  8
gm1
 10
0.836900
 20
-0.858500
  0
VERTEX
  8
gm1
 10
0.846900
 20
-0.848500
  0
VERTEX
  8
gm1
 10
0.846900
 20
-0.828500
  0
VERTEX
  8
gm1
 10
0.836900
 20
-0.818500
  0
VERTEX
  8
gm1
 10
0.816900
 20
-0.818500
  0
VERTEX
  8
gm1
 10
0.806900
 20
-0.828500
  0
VERTEX
  8
gm1
 10
0.806900
 20
-0.848500
  0
VERTEX
  8
gm1
 10
0.816900
 20
-0.858500
  0
SEQEND
  8
gm1
  0
POLYLINE
  8
gm1
 62
1
 40
0.000000
 41
0.000000
 66
  1
  0
VERTEX
  8
gm1
 10
0.876900
 20
-0.818500
  0
VERTEX
  8
gm1
 10
0.896900
 20
-0.818500
  0
VERTEX
  8
gm1
 10
0.906900
 20
-0.828500
  0
VERTEX
  8
gm1
 10
0.906900
 20
-0.858500
  0
VERTEX
  8
gm1
 10
0.876900
 20
-0.858500
  0
VERTEX
  8
gm1
 10
0.866900
 20
-0.848500
  0
VERTEX
  8
gm1
 10
0.876900
 20
-0.838500
  0
VERTEX
  8
gm1
 10
0.906900
 20
-0.838500
  0
SEQEND
  8
gm1
  0
POLYLINE
  8
gm1
 62
1
 40
0.000000
 41
0.000000
 66
  1
  0
VERTEX
  8
gm1
 10
0.926900
 20
-0.818500
  0
VERTEX
  8
gm1
 10
0.926900
 20
-0.858500
  0
VERTEX
  8
gm1
 10
0.926900
 20
-0.838500
  0
VERTEX
  8
gm1
 10
0.936900
 20
-0.828500
  0
VERTEX
  8
gm1
 10
0.946900
 20
-0.818500
  0
VERTEX
  8
gm1
 10
0.956900
 20
-0.818500
  0
SEQEND
  8
gm1
  0
POLYLINE
  8
gm1
 62
1
 40
0.000000
 41
0.000000
 66
  1
  0
VERTEX
  8
gm1
 10
1.026900
 20
-0.798500
  0
VERTEX
  8
gm1
 10
1.026900
 20
-0.858500
  0
VERTEX
  8
gm1
 10
0.996900
 20
-0.858500
  0
VERTEX
  8
gm1
 10
0.986900
 20
-0.848500
  0
VERTEX
  8
gm1
 10
0.986900
 20
-0.828500
  0
VERTEX
  8
gm1
 10
0.996900
 20
-0.818500
  0
VERTEX
  8
gm1
 10
1.026900
 20
-0.818500
  0
SEQEND
  8
gm1
  0
POLYLINE
  8
gm1
 62
1
 40
0.000000
 41
0.000000
 66
  1
  0
VERTEX
  8
gm1
 10
1.136800
 20
-0.798500
  0
VERTEX
  8
gm1
 10
1.116800
 20
-0.798500
  0
VERTEX
  8
gm1
 10
1.106800
 20
-0.808500
  0
VERTEX
  8
gm1
 10
1.106800
 20
-0.848500
  0
VERTEX
  8
gm1
 10
1.116800
 20
-0.858500
  0
VERTEX
  8
gm1
 10
1.136800
 20
-0.858500
  0
VERTEX
  8
gm1
 10
1.146800
 20
-0.848500
  0
VERTEX
  8
gm1
 10
1.146800
 20
-0.808500
  0
VERTEX
  8
gm1
 10
1.136800
 20
-0.798500
  0
SEQEND
  8
gm1
  0
POLYLINE
  8
gm1
 62
1
 40
0.000000
 41
0.000000
 66
  1
  0
VERTEX
  8
gm1
 10
1.166800
 20
-0.818500
  0
VERTEX
  8
gm1
 10
1.166800
 20
-0.848500
  0
VERTEX
  8
gm1
 10
1.176800
 20
-0.858500
  0
VERTEX
  8
gm1
 10
1.206800
 20
-0.858500
  0
VERTEX
  8
gm1
 10
1.206800
 20
-0.818500
  0
SEQEND
  8
gm1
  0
POLYLINE
  8
gm1
 62
1
 40
0.000000
 41
0.000000
 66
  1
  0
VERTEX
  8
gm1
 10
1.236800
 20
-0.808500
  0
VERTEX
  8
gm1
 10
1.236800
 20
-0.818500
  0
VERTEX
  8
gm1
 10
1.226800
 20
-0.818500
  0
VERTEX
  8
gm1
 10
1.246800
 20
-0.818500
  0
VERTEX
  8
gm1
 10
1.236800
 20
-0.818500
  0
VERTEX
  8
gm1
 10
1.236800
 20
-0.848500
  0
VERTEX
  8
gm1
 10
1.246800
 20
-0.858500
  0
SEQEND
  8
gm1
  0
POLYLINE
  8
gm1
 62
1
 40
0.000000
 41
0.000000
 66
  1
  0
VERTEX
  8
gm1
 10
1.276800
 20
-0.858500
  0
VERTEX
  8
gm1
 10
1.296800
 20
-0.858500
  0
VERTEX
  8
gm1
 10
1.286800
 20
-0.858500
  0
VERTEX
  8
gm1
 10
1.286800
 20
-0.798500
  0
VERTEX
  8
gm1
 10
1.276800
 20
-0.798500
  0
SEQEND
  8
gm1
  0
POLYLINE
  8
gm1
 62
1
 40
0.000000
 41
0.000000
 66
  1
  0
VERTEX
  8
gm1
 10
1.326800
 20
-0.858500
  0
VERTEX
  8
gm1
 10
1.346800
 20
-0.858500
  0
VERTEX
  8
gm1
 10
1.336800
 20
-0.858500
  0
VERTEX
  8
gm1
 10
1.336800
 20
-0.818500
  0
VERTEX
  8
gm1
 10
1.326800
 20
-0.818500
  0
SEQEND
  8
gm1
  0
POLYLINE
  8
gm1
 62
1
 40
0.000000
 41
0.000000
 66
  1
  0
VERTEX
  8
gm1
 10
1.376700
 20
-0.858500
  0
VERTEX
  8
gm1
 10
1.376700
 20
-0.818500
  0
VERTEX
  8
gm1
 10
1.406700
 20
-0.818500
  0
VERTEX
  8
gm1
 10
1.416700
 20
-0.828500
  0
VERTEX
  8
gm1
 10
1.416700
 20
-0.858500
  0
SEQEND
  8
gm1
  0
POLYLINE
  8
gm1
 62
1
 40
0.000000
 41
0.000000
 66
  1
  0
VERTEX
  8
gm1
 10
1.466700
 20
-0.858500
  0
VERTEX
  8
gm1
 10
1.446700
 20
-0.858500
  0
VERTEX
  8
gm1
 10
1.436700
 20
-0.848500
  0
VERTEX
  8
gm1
 10
1.436700
 20
-0.828500
  0
VERTEX
  8
gm1
 10
1.446700
 20
-0.818500
  0
VERTEX
  8
gm1
 10
1.466700
 20
-0.818500
  0
VERTEX
  8
gm1
 10
1.476700
 20
-0.828500
  0
VERTEX
  8
gm1
 10
1.476700
 20
-0.838500
  0
VERTEX
  8
gm1
 10
1.436700
 20
-0.838500
  0
SEQEND
  8
gm1
  0
POLYLINE
  8
gm1
 62
1
 40
0.000000
 41
0.000000
 66
  1
  0
VERTEX
  8
gm1
 10
-0.061000
 20
0.916700
  0
VERTEX
  8
gm1
 10
-0.061000
 20
0.876700
  0
VERTEX
  8
gm1
 10
-0.101000
 20
0.916700
  0
VERTEX
  8
gm1
 10
-0.111000
 20
0.916700
  0
VERTEX
  8
gm1
 10
-0.121000
 20
0.906700
  0
VERTEX
  8
gm1
 10
-0.121000
 20
0.886700
  0
VERTEX
  8
gm1
 10
-0.111000
 20
0.876700
  0
SEQEND
  8
gm1
  0
POLYLINE
  8
gm1
 62
1
 40
0.000000
 41
0.000000
 66
  1
  0
VERTEX
  8
gm1
 10
-0.061000
 20
0.936700
  0
VERTEX
  8
gm1
 10
-0.061000
 20
0.956600
  0
VERTEX
  8
gm1
 10
-0.061000
 20
0.946700
  0
VERTEX
  8
gm1
 10
-0.121000
 20
0.946700
  0
VERTEX
  8
gm1
 10
-0.111000
 20
0.936700
  0
SEQEND
  8
gm1
  0
POLYLINE
  8
gm1
 62
1
 40
0.000000
 41
0.000000
 66
  1
  0
VERTEX
  8
gm1
 10
-0.121000
 20
1.026600
  0
VERTEX
  8
gm1
 10
-0.111000
 20
1.006600
  0
VERTEX
  8
gm1
 10
-0.091000
 20
0.986600
  0
VERTEX
  8
gm1
 10
-0.071000
 20
0.986600
  0
VERTEX
  8
gm1
 10
-0.061000
 20
0.996600
  0
VERTEX
  8
gm1
 10
-0.061000
 20
1.016600
  0
VERTEX
  8
gm1
 10
-0.071000
 20
1.026600
  0
VERTEX
  8
gm1
 10
-0.081000
 20
1.026600
  0
VERTEX
  8
gm1
 10
-0.091000
 20
1.016600
  0
VERTEX
  8
gm1
 10
-0.091000
 20
0.986600
  0
SEQEND
  8
gm1
  0
POLYLINE
  8
gm1
 62
1
 40
0.000000
 41
0.000000
 66
  1
  0
VERTEX
  8
gm1
 10
-0.121000
 20
1.086600
  0
VERTEX
  8
gm1
 10
-0.121000
 20
1.046600
  0
VERTEX
  8
gm1
 10
-0.091000
 20
1.046600
  0
VERTEX
  8
gm1
 10
-0.101000
 20
1.066600
  0
VERTEX
  8
gm1
 10
-0.101000
 20
1.076600
  0
VERTEX
  8
gm1
 10
-0.091000
 20
1.086600
  0
VERTEX
  8
gm1
 10
-0.071000
 20
1.086600
  0
VERTEX
  8
gm1
 10
-0.061000
 20
1.076600
  0
VERTEX
  8
gm1
 10
-0.061000
 20
1.056600
  0
VERTEX
  8
gm1
 10
-0.071000
 20
1.046600
  0
SEQEND
  8
gm1
  0
POLYLINE
  8
gm1
 62
1
 40
0.000000
 41
0.000000
 66
  1
  0
VERTEX
  8
gm1
 10
-0.061000
 20
1.106600
  0
VERTEX
  8
gm1
 10
-0.071000
 20
1.106600
  0
VERTEX
  8
gm1
 10
-0.071000
 20
1.116600
  0
VERTEX
  8
gm1
 10
-0.061000
 20
1.116600
  0
VERTEX
  8
gm1
 10
-0.061000
 20
1.106600
  0
SEQEND
  8
gm1
  0
POLYLINE
  8
gm1
 62
1
 40
0.000000
 41
0.000000
 66
  1
  0
VERTEX
  8
gm1
 10
-0.061000
 20
1.196600
  0
VERTEX
  8
gm1
 10
-0.061000
 20
1.156600
  0
VERTEX
  8
gm1
 10
-0.101000
 20
1.196600
  0
VERTEX
  8
gm1
 10
-0.111000
 20
1.196600
  0
VERTEX
  8
gm1
 10
-0.121000
 20
1.186600
  0
VERTEX
  8
gm1
 10
-0.121000
 20
1.166600
  0
VERTEX
  8
gm1
 10
-0.111000
 20
1.156600
  0
SEQEND
  8
gm1
  0
POLYLINE
  8
gm1
 62
1
 40
0.000000
 41
0.000000
 66
  1
  0
VERTEX
  8
gm1
 10
-0.061000
 20
1.256500
  0
VERTEX
  8
gm1
 10
-0.061000
 20
1.216600
  0
VERTEX
  8
gm1
 10
-0.101000
 20
1.256500
  0
VERTEX
  8
gm1
 10
-0.111000
 20
1.256500
  0
VERTEX
  8
gm1
 10
-0.121000
 20
1.246600
  0
VERTEX
  8
gm1
 10
-0.121000
 20
1.226600
  0
VERTEX
  8
gm1
 10
-0.111000
 20
1.216600
  0
SEQEND
  8
gm1
  0
POLYLINE
  8
gm1
 62
1
 40
0.000000
 41
0.000000
 66
  1
  0
VERTEX
  8
gm1
 10
0.830900
 20
-0.101000
  0
VERTEX
  8
gm1
 10
0.790900
 20
-0.101000
  0
VERTEX
  8
gm1
 10
0.830900
 20
-0.061000
  0
VERTEX
  8
gm1
 10
0.830900
 20
-0.051100
  0
VERTEX
  8
gm1
 10
0.820900
 20
-0.041100
  0
VERTEX
  8
gm1
 10
0.800900
 20
-0.041100
  0
VERTEX
  8
gm1
 10
0.790900
 20
-0.051100
  0
SEQEND
  8
gm1
  0
POLYLINE
  8
gm1
 62
1
 40
0.000000
 41
0.000000
 66
  1
  0
VERTEX
  8
gm1
 10
0.850900
 20
-0.051100
  0
VERTEX
  8
gm1
 10
0.860900
 20
-0.041100
  0
VERTEX
  8
gm1
 10
0.880800
 20
-0.041100
  0
VERTEX
  8
gm1
 10
0.890800
 20
-0.051100
  0
VERTEX
  8
gm1
 10
0.890800
 20
-0.091000
  0
VERTEX
  8
gm1
 10
0.880800
 20
-0.101000
  0
VERTEX
  8
gm1
 10
0.860900
 20
-0.101000
  0
VERTEX
  8
gm1
 10
0.850900
 20
-0.091000
  0
VERTEX
  8
gm1
 10
0.850900
 20
-0.051100
  0
SEQEND
  8
gm1
  0
POLYLINE
  8
gm1
 62
1
 40
0.000000
 41
0.000000
 66
  1
  0
VERTEX
  8
gm1
 10
0.910800
 20
-0.051100
  0
VERTEX
  8
gm1
 10
0.920800
 20
-0.041100
  0
VERTEX
  8
gm1
 10
0.940800
 20
-0.041100
  0
VERTEX
  8
gm1
 10
0.950800
 20
-0.051100
  0
VERTEX
  8
gm1
 10
0.950800
 20
-0.091000
  0
VERTEX
  8
gm1
 10
0.940800
 20
-0.101000
  0
VERTEX
  8
gm1
 10
0.920800
 20
-0.101000
  0
VERTEX
  8
gm1
 10
0.910800
 20
-0.091000
  0
VERTEX
  8
gm1
 10
0.910800
 20
-0.051100
  0
SEQEND
  8
gm1
  0
POLYLINE
  8
gm1
 62
1
 40
0.000000
 41
0.000000
 66
  1
  0
VERTEX
  8
gm1
 10
0.970800
 20
-0.051100
  0
VERTEX
  8
gm1
 10
0.980800
 20
-0.041100
  0
VERTEX
  8
gm1
 10
1.000800
 20
-0.041100
  0
VERTEX
  8
gm1
 10
1.010800
 20
-0.051100
  0
VERTEX
  8
gm1
 10
1.010800
 20
-0.061000
  0
VERTEX
  8
gm1
 10
1.000800
 20
-0.071000
  0
VERTEX
  8
gm1
 10
0.990800
 20
-0.071000
  0
VERTEX
  8
gm1
 10
1.000800
 20
-0.071000
  0
VERTEX
  8
gm1
 10
1.010800
 20
-0.081000
  0
VERTEX
  8
gm1
 10
1.010800
 20
-0.091000
  0
VERTEX
  8
gm1
 10
1.000800
 20
-0.101000
  0
VERTEX
  8
gm1
 10
0.980800
 20
-0.101000
  0
VERTEX
  8
gm1
 10
0.970800
 20
-0.091000
  0
SEQEND
  8
gm1
  0
POLYLINE
  8
gm1
 62
1
 40
0.000000
 41
0.000000
 66
  1
  0
VERTEX
  8
gm1
 10
1.030800
 20
-0.101000
  0
VERTEX
  8
gm1
 10
1.030800
 20
-0.091000
  0
VERTEX
  8
gm1
 10
1.040800
 20
-0.091000
  0
VERTEX
  8
gm1
 10
1.040800
 20
-0.101000
  0
VERTEX
  8
gm1
 10
1.030800
 20
-0.101000
  0
SEQEND
  8
gm1
  0
POLYLINE
  8
gm1
 62
1
 40
0.000000
 41
0.000000
 66
  1
  0
VERTEX
  8
gm1
 10
1.120800
 20
-0.041100
  0
VERTEX
  8
gm1
 10
1.100800
 20
-0.051100
  0
VERTEX
  8
gm1
 10
1.080800
 20
-0.071000
  0
VERTEX
  8
gm1
 10
1.080800
 20
-0.091000
  0
VERTEX
  8
gm1
 10
1.090800
 20
-0.101000
  0
VERTEX
  8
gm1
 10
1.110800
 20
-0.101000
  0
VERTEX
  8
gm1
 10
1.120800
 20
-0.091000
  0
VERTEX
  8
gm1
 10
1.120800
 20
-0.081000
  0
VERTEX
  8
gm1
 10
1.110800
 20
-0.071000
  0
VERTEX
  8
gm1
 10
1.080800
 20
-0.071000
  0
SEQEND
  8
gm1
  0
POLYLINE
  8
gm1
 62
1
 40
0.000000
 41
0.000000
 66
  1
  0
VERTEX
  8
gm1
 10
1.140800
 20
-0.051100
  0
VERTEX
  8
gm1
 10
1.150800
 20
-0.041100
  0
VERTEX
  8
gm1
 10
1.170800
 20
-0.041100
  0
VERTEX
  8
gm1
 10
1.180700
 20
-0.051100
  0
VERTEX
  8
gm1
 10
1.180700
 20
-0.061000
  0
VERTEX
  8
gm1
 10
1.170800
 20
-0.071000
  0
VERTEX
  8
gm1
 10
1.160800
 20
-0.071000
  0
VERTEX
  8
gm1
 10
1.170800
 20
-0.071000
  0
VERTEX
  8
gm1
 10
1.180700
 20
-0.081000
  0
VERTEX
  8
gm1
 10
1.180700
 20
-0.091000
  0
VERTEX
  8
gm1
 10
1.170800
 20
-0.101000
  0
VERTEX
  8
gm1
 10
1.150800
 20
-0.101000
  0
VERTEX
  8
gm1
 10
1.140800
 20
-0.091000
  0
SEQEND
  8
gm1
  0
INSERT
  8
gm2
  2
D15
 10
0.312000
 20
-0.348000
 41
1.0
 42
1.0
 43
1.0
 50
0.0
  0
INSERT
  8
gm2
  2
D17
 10
0.062000
 20
-0.223000
 41
1.0
 42
1.0
 43
1.0
 50
0.0
  0
POLYLINE
  8
gm2
 62
1
 40
0.000000
 41
0.000000
 66
  1
  0
VERTEX
  8
gm2
 10
-0.000500
 20
-0.465500
  0
VERTEX
  8
gm2
 10
0.223600
 20
-0.465500
  0
SEQEND
  8
gm2
  0
POLYLINE
  8
gm2
 62
1
 40
0.000000
 41
0.000000
 66
  1
  0
VERTEX
  8
gm2
 10
0.775400
 20
-0.465500
  0
VERTEX
  8
gm2
 10
0.999500
 20
-0.465500
  0
SEQEND
  8
gm2
  0
POLYLINE
  8
gm2
 62
1
 40
0.000000
 41
0.000000
 66
  1
  0
VERTEX
  8
gm2
 10
-0.000500
 20
-0.465500
  0
VERTEX
  8
gm2
 10
0.059500
 20
-0.445500
  0
SEQEND
  8
gm2
  0
POLYLINE
  8
gm2
 62
1
 40
0.000000
 41
0.000000
 66
  1
  0
VERTEX
  8
gm2
 10
-0.000500
 20
-0.465500
  0
VERTEX
  8
gm2
 10
0.059500
 20
-0.485500
  0
SEQEND
  8
gm2
  0
POLYLINE
  8
gm2
 62
1
 40
0.000000
 41
0.000000
 66
  1
  0
VERTEX
  8
gm2
 10
0.939500
 20
-0.445500
  0
VERTEX
  8
gm2
 10
0.999500
 20
-0.465500
  0
SEQEND
  8
gm2
  0
POLYLINE
  8
gm2
 62
1
 40
0.000000
 41
0.000000
 66
  1
  0
VERTEX
  8
gm2
 10
0.939500
 20
-0.485500
  0
VERTEX
  8
gm2
 10
0.999500
 20
-0.465500
  0
SEQEND
  8
gm2
  0
POLYLINE
  8
gm2
 62
1
 40
0.000000
 41
0.000000
 66
  1
  0
VERTEX
  8
gm2
 10
-0.000500
 20
-0.475500
  0
VERTEX
  8
gm2
 10
-0.000500
 20
-0.455500
  0
SEQEND
  8
gm2
  0
POLYLINE
  8
gm2
 62
1
 40
0.000000
 41
0.000000
 66
  1
  0
VERTEX
  8
gm2
 10
0.999500
 20
-0.475500
  0
VERTEX
  8
gm2
 10
0.999500
 20
-0.455500
  0
SEQEND
  8
gm2
  0
POLYLINE
  8
gm2
 62
1
 40
0.000000
 41
0.000000
 66
  1
  0
VERTEX
  8
gm2
 10
0.577000
 20
-0.858500
  0
VERTEX
  8
gm2
 10
0.577000
 20
-0.798500
  0
VERTEX
  8
gm2
 10
0.597000
 20
-0.818500
  0
VERTEX
  8
gm2
 10
0.617000
 20
-0.798500
  0
VERTEX
  8
gm2
 10
0.617000
 20
-0.858500
  0
SEQEND
  8
gm2
  0
POLYLINE
  8
gm2
 62
1
 40
0.000000
 41
0.000000
 66
  1
  0
VERTEX
  8
gm2
 10
0.677000
 20
-0.858500
  0
VERTEX
  8
gm2
 10
0.637000
 20
-0.858500
  0
VERTEX
  8
gm2
 10
0.677000
 20
-0.818500
  0
VERTEX
  8
gm2
 10
0.677000
 20
-0.808500
  0
VERTEX
  8
gm2
 10
0.667000
 20
-0.798500
  0
VERTEX
  8
gm2
 10
0.647000
 20
-0.798500
  0
VERTEX
  8
gm2
 10
0.637000
 20
-0.808500
  0
SEQEND
  8
gm2
  0
POLYLINE
  8
gm2
 62
1
 40
0.000000
 41
0.000000
 66
  1
  0
VERTEX
  8
gm2
 10
0.756900
 20
-0.798500
  0
VERTEX
  8
gm2
 10
0.756900
 20
-0.858500
  0
VERTEX
  8
gm2
 10
0.786900
 20
-0.858500
  0
VERTEX
  8
gm2
 10
0.796900
 20
-0.848500
  0
VERTEX
  8
gm2
 10
0.796900
 20
-0.838500
  0
VERTEX
  8
gm2
 10
0.786900
 20
-0.828500
  0
VERTEX
  8
gm2
 10
0.756900
 20
-0.828500
  0
VERTEX
  8
gm2
 10
0.786900
 20
-0.828500
  0
VERTEX
  8
gm2
 10
0.796900
 20
-0.818500
  0
VERTEX
  8
gm2
 10
0.796900
 20
-0.808500
  0
VERTEX
  8
gm2
 10
0.786900
 20
-0.798500
  0
VERTEX
  8
gm2
 10
0.756900
 20
-0.798500
  0
SEQEND
  8
gm2
  0
POLYLINE
  8
gm2
 62
1
 40
0.000000
 41
0.000000
 66
  1
  0
VERTEX
  8
gm2
 10
0.826900
 20
-0.858500
  0
VERTEX
  8
gm2
 10
0.846900
 20
-0.858500
  0
VERTEX
  8
gm2
 10
0.856900
 20
-0.848500
  0
VERTEX
  8
gm2
 10
0.856900
 20
-0.828500
  0
VERTEX
  8
gm2
 10
0.846900
 20
-0.818500
  0
VERTEX
  8
gm2
 10
0.826900
 20
-0.818500
  0
VERTEX
  8
gm2
 10
0.816900
 20
-0.828500
  0
VERTEX
  8
gm2
 10
0.816900
 20
-0.848500
  0
VERTEX
  8
gm2
 10
0.826900
 20
-0.858500
  0
SEQEND
  8
gm2
  0
POLYLINE
  8
gm2
 62
1
 40
0.000000
 41
0.000000
 66
  1
  0
VERTEX
  8
gm2
 10
0.886900
 20
-0.818500
  0
VERTEX
  8
gm2
 10
0.906900
 20
-0.818500
  0
VERTEX
  8
gm2
 10
0.916900
 20
-0.828500
  0
VERTEX
  8
gm2
 10
0.916900
 20
-0.858500
  0
VERTEX
  8
gm2
 10
0.886900
 20
-0.858500
  0
VERTEX
  8
gm2
 10
0.876900
 20
-0.848500
  0
VERTEX
  8
gm2
 10
0.886900
 20
-0.838500
  0
VERTEX
  8
gm2
 10
0.916900
 20
-0.838500
  0
SEQEND
  8
gm2
  0
POLYLINE
  8
gm2
 62
1
 40
0.000000
 41
0.000000
 66
  1
  0
VERTEX
  8
gm2
 10
0.936900
 20
-0.818500
  0
VERTEX
  8
gm2
 10
0.936900
 20
-0.858500
  0
VERTEX
  8
gm2
 10
0.936900
 20
-0.838500
  0
VERTEX
  8
gm2
 10
0.946900
 20
-0.828500
  0
VERTEX
  8
gm2
 10
0.956900
 20
-0.818500
  0
VERTEX
  8
gm2
 10
0.966900
 20
-0.818500
  0
SEQEND
  8
gm2
  0
POLYLINE
  8
gm2
 62
1
 40
0.000000
 41
0.000000
 66
  1
  0
VERTEX
  8
gm2
 10
1.036900
 20
-0.798500
  0
VERTEX
  8
gm2
 10
1.036900
 20
-0.858500
  0
VERTEX
  8
gm2
 10
1.006900
 20
-0.858500
  0
VERTEX
  8
gm2
 10
0.996900
 20
-0.848500
  0
VERTEX
  8
gm2
 10
0.996900
 20
-0.828500
  0
VERTEX
  8
gm2
 10
1.006900
 20
-0.818500
  0
VERTEX
  8
gm2
 10
1.036900
 20
-0.818500
  0
SEQEND
  8
gm2
  0
POLYLINE
  8
gm2
 62
1
 40
0.000000
 41
0.000000
 66
  1
  0
VERTEX
  8
gm2
 10
1.116800
 20
-0.798500
  0
VERTEX
  8
gm2
 10
1.116800
 20
-0.858500
  0
VERTEX
  8
gm2
 10
1.146800
 20
-0.858500
  0
VERTEX
  8
gm2
 10
1.156800
 20
-0.848500
  0
VERTEX
  8
gm2
 10
1.156800
 20
-0.808500
  0
VERTEX
  8
gm2
 10
1.146800
 20
-0.798500
  0
VERTEX
  8
gm2
 10
1.116800
 20
-0.798500
  0
SEQEND
  8
gm2
  0
POLYLINE
  8
gm2
 62
1
 40
0.000000
 41
0.000000
 66
  1
  0
VERTEX
  8
gm2
 10
1.176800
 20
-0.858500
  0
VERTEX
  8
gm2
 10
1.196800
 20
-0.858500
  0
VERTEX
  8
gm2
 10
1.186800
 20
-0.858500
  0
VERTEX
  8
gm2
 10
1.186800
 20
-0.818500
  0
VERTEX
  8
gm2
 10
1.176800
 20
-0.818500
  0
SEQEND
  8
gm2
  0
POLYLINE
  8
gm2
 62
1
 40
0.000000
 41
0.000000
 66
  1
  0
VERTEX
  8
gm2
 10
1.226800
 20
-0.858500
  0
VERTEX
  8
gm2
 10
1.226800
 20
-0.818500
  0
VERTEX
  8
gm2
 10
1.236800
 20
-0.818500
  0
VERTEX
  8
gm2
 10
1.246800
 20
-0.828500
  0
VERTEX
  8
gm2
 10
1.246800
 20
-0.858500
  0
VERTEX
  8
gm2
 10
1.246800
 20
-0.828500
  0
VERTEX
  8
gm2
 10
1.256800
 20
-0.818500
  0
VERTEX
  8
gm2
 10
1.266800
 20
-0.828500
  0
VERTEX
  8
gm2
 10
1.266800
 20
-0.858500
  0
SEQEND
  8
gm2
  0
POLYLINE
  8
gm2
 62
1
 40
0.000000
 41
0.000000
 66
  1
  0
VERTEX
  8
gm2
 10
1.316800
 20
-0.858500
  0
VERTEX
  8
gm2
 10
1.296800
 20
-0.858500
  0
VERTEX
  8
gm2
 10
1.286800
 20
-0.848500
  0
VERTEX
  8
gm2
 10
1.286800
 20
-0.828500
  0
VERTEX
  8
gm2
 10
1.296800
 20
-0.818500
  0
VERTEX
  8
gm2
 10
1.316800
 20
-0.818500
  0
VERTEX
  8
gm2
 10
1.326800
 20
-0.828500
  0
VERTEX
  8
gm2
 10
1.326800
 20
-0.838500
  0
VERTEX
  8
gm2
 10
1.286800
 20
-0.838500
  0
SEQEND
  8
gm2
  0
POLYLINE
  8
gm2
 62
1
 40
0.000000
 41
0.000000
 66
  1
  0
VERTEX
  8
gm2
 10
1.346800
 20
-0.858500
  0
VERTEX
  8
gm2
 10
1.346800
 20
-0.818500
  0
VERTEX
  8
gm2
 10
1.376700
 20
-0.818500
  0
VERTEX
  8
gm2
 10
1.386700
 20
-0.828500
  0
VERTEX
  8
gm2
 10
1.386700
 20
-0.858500
  0
SEQEND
  8
gm2
  0
POLYLINE
  8
gm2
 62
1
 40
0.000000
 41
0.000000
 66
  1
  0
VERTEX
  8
gm2
 10
1.406700
 20
-0.858500
  0
VERTEX
  8
gm2
 10
1.436700
 20
-0.858500
  0
VERTEX
  8
gm2
 10
1.446700
 20
-0.848500
  0
VERTEX
  8
gm2
 10
1.436700
 20
-0.838500
  0
VERTEX
  8
gm2
 10
1.416700
 20
-0.838500
  0
VERTEX
  8
gm2
 10
1.406700
 20
-0.828500
  0
VERTEX
  8
gm2
 10
1.416700
 20
-0.818500
  0
VERTEX
  8
gm2
 10
1.446700
 20
-0.818500
  0
SEQEND
  8
gm2
  0
POLYLINE
  8
gm2
 62
1
 40
0.000000
 41
0.000000
 66
  1
  0
VERTEX
  8
gm2
 10
1.466700
 20
-0.858500
  0
VERTEX
  8
gm2
 10
1.486700
 20
-0.858500
  0
VERTEX
  8
gm2
 10
1.476700
 20
-0.858500
  0
VERTEX
  8
gm2
 10
1.476700
 20
-0.818500
  0
VERTEX
  8
gm2
 10
1.466700
 20
-0.818500
  0
SEQEND
  8
gm2
  0
POLYLINE
  8
gm2
 62
1
 40
0.000000
 41
0.000000
 66
  1
  0
VERTEX
  8
gm2
 10
1.526700
 20
-0.858500
  0
VERTEX
  8
gm2
 10
1.546700
 20
-0.858500
  0
VERTEX
  8
gm2
 10
1.556700
 20
-0.848500
  0
VERTEX
  8
gm2
 10
1.556700
 20
-0.828500
  0
VERTEX
  8
gm2
 10
1.546700
 20
-0.818500
  0
VERTEX
  8
gm2
 10
1.526700
 20
-0.818500
  0
VERTEX
  8
gm2
 10
1.516700
 20
-0.828500
  0
VERTEX
  8
gm2
 10
1.516700
 20
-0.848500
  0
VERTEX
  8
gm2
 10
1.526700
 20
-0.858500
  0
SEQEND
  8
gm2
  0
POLYLINE
  8
gm2
 62
1
 40
0.000000
 41
0.000000
 66
  1
  0
VERTEX
  8
gm2
 10
1.576700
 20
-0.858500
  0
VERTEX
  8
gm2
 10
1.576700
 20
-0.818500
  0
VERTEX
  8
gm2
 10
1.606700
 20
-0.818500
  0
VERTEX
  8
gm2
 10
1.616700
 20
-0.828500
  0
VERTEX
  8
gm2
 10
1.616700
 20
-0.858500
  0
SEQEND
  8
gm2
  0
POLYLINE
  8
gm2
 62
1
 40
0.000000
 41
0.000000
 66
  1
  0
VERTEX
  8
gm2
 10
1.636700
 20
-0.858500
  0
VERTEX
  8
gm2
 10
1.666600
 20
-0.858500
  0
VERTEX
  8
gm2
 10
1.676600
 20
-0.848500
  0
VERTEX
  8
gm2
 10
1.666600
 20
-0.838500
  0
VERTEX
  8
gm2
 10
1.646700
 20
-0.838500
  0
VERTEX
  8
gm2
 10
1.636700
 20
-0.828500
  0
VERTEX
  8
gm2
 10
1.646700
 20
-0.818500
  0
VERTEX
  8
gm2
 10
1.676600
 20
-0.818500
  0
SEQEND
  8
gm2
  0
POLYLINE
  8
gm2
 62
1
 40
0.000000
 41
0.000000
 66
  1
  0
VERTEX
  8
gm2
 10
0.233600
 20
-0.501500
  0
VERTEX
  8
gm2
 10
0.253600
 20
-0.501500
  0
VERTEX
  8
gm2
 10
0.243600
 20
-0.501500
  0
VERTEX
  8
gm2
 10
0.243600
 20
-0.441500
  0
VERTEX
  8
gm2
 10
0.233600
 20
-0.451500
  0
SEQEND
  8
gm2
  0
POLYLINE
  8
gm2
 62
1
 40
0.000000
 41
0.000000
 66
  1
  0
VERTEX
  8
gm2
 10
0.283600
 20
-0.451500
  0
VERTEX
  8
gm2
 10
0.293600
 20
-0.441500
  0
VERTEX
  8
gm2
 10
0.313600
 20
-0.441500
  0
VERTEX
  8
gm2
 10
0.323600
 20
-0.451500
  0
VERTEX
  8
gm2
 10
0.323600
 20
-0.491500
  0
VERTEX
  8
gm2
 10
0.313600
 20
-0.501500
  0
VERTEX
  8
gm2
 10
0.293600
 20
-0.501500
  0
VERTEX
  8
gm2
 10
0.283600
 20
-0.491500
  0
VERTEX
  8
gm2
 10
0.283600
 20
-0.451500
  0
SEQEND
  8
gm2
  0
POLYLINE
  8
gm2
 62
1
 40
0.000000
 41
0.000000
 66
  1
  0
VERTEX
  8
gm2
 10
0.343500
 20
-0.451500
  0
VERTEX
  8
gm2
 10
0.353500
 20
-0.441500
  0
VERTEX
  8
gm2
 10
0.373500
 20
-0.441500
  0
VERTEX
  8
gm2
 10
0.383500
 20
-0.451500
  0
VERTEX
  8
gm2
 10
0.383500
 20
-0.491500
  0
VERTEX
  8
gm2
 10
0.373500
 20
-0.501500
  0
VERTEX
  8
gm2
 10
0.353500
 20
-0.501500
  0
VERTEX
  8
gm2
 10
0.343500
 20
-0.491500
  0
VERTEX
  8
gm2
 10
0.343500
 20
-0.451500
  0
SEQEND
  8
gm2
  0
POLYLINE
  8
gm2
 62
1
 40
0.000000
 41
0.000000
 66
  1
  0
VERTEX
  8
gm2
 10
0.403500
 20
-0.451500
  0
VERTEX
  8
gm2
 10
0.413500
 20
-0.441500
  0
VERTEX
  8
gm2
 10
0.433500
 20
-0.441500
  0
VERTEX
  8
gm2
 10
0.443500
 20
-0.451500
  0
VERTEX
  8
gm2
 10
0.443500
 20
-0.491500
  0
VERTEX
  8
gm2
 10
0.433500
 20
-0.501500
  0
VERTEX
  8
gm2
 10
0.413500
 20
-0.501500
  0
VERTEX
  8
gm2
 10
0.403500
 20
-0.491500
  0
VERTEX
  8
gm2
 10
0.403500
 20
-0.451500
  0
SEQEND
  8
gm2
  0
POLYLINE
  8
gm2
 62
1
 40
0.000000
 41
0.000000
 66
  1
  0
VERTEX
  8
gm2
 10
0.543500
 20
-0.501500
  0
VERTEX
  8
gm2
 10
0.523500
 20
-0.481500
  0
VERTEX
  8
gm2
 10
0.523500
 20
-0.461500
  0
VERTEX
  8
gm2
 10
0.543500
 20
-0.441500
  0
SEQEND
  8
gm2
  0
POLYLINE
  8
gm2
 62
1
 40
0.000000
 41
0.000000
 66
  1
  0
VERTEX
  8
gm2
 10
0.573500
 20
-0.501500
  0
VERTEX
  8
gm2
 10
0.573500
 20
-0.461500
  0
VERTEX
  8
gm2
 10
0.583500
 20
-0.461500
  0
VERTEX
  8
gm2
 10
0.593500
 20
-0.471500
  0
VERTEX
  8
gm2
 10
0.593500
 20
-0.501500
  0
VERTEX
  8
gm2
 10
0.593500
 20
-0.471500
  0
VERTEX
  8
gm2
 10
0.603500
 20
-0.461500
  0
VERTEX
  8
gm2
 10
0.613500
 20
-0.471500
  0
VERTEX
  8
gm2
 10
0.613500
 20
-0.501500
  0
SEQEND
  8
gm2
  0
POLYLINE
  8
gm2
 62
1
 40
0.000000
 41
0.000000
 66
  1
  0
VERTEX
  8
gm2
 10
0.633500
 20
-0.501500
  0
VERTEX
  8
gm2
 10
0.653400
 20
-0.501500
  0
VERTEX
  8
gm2
 10
0.643500
 20
-0.501500
  0
VERTEX
  8
gm2
 10
0.643500
 20
-0.461500
  0
VERTEX
  8
gm2
 10
0.633500
 20
-0.461500
  0
SEQEND
  8
gm2
  0
POLYLINE
  8
gm2
 62
1
 40
0.000000
 41
0.000000
 66
  1
  0
VERTEX
  8
gm2
 10
0.683400
 20
-0.501500
  0
VERTEX
  8
gm2
 10
0.703400
 20
-0.501500
  0
VERTEX
  8
gm2
 10
0.693400
 20
-0.501500
  0
VERTEX
  8
gm2
 10
0.693400
 20
-0.441500
  0
VERTEX
  8
gm2
 10
0.683400
 20
-0.441500
  0
SEQEND
  8
gm2
  0
POLYLINE
  8
gm2
 62
1
 40
0.000000
 41
0.000000
 66
  1
  0
VERTEX
  8
gm2
 10
0.733400
 20
-0.501500
  0
VERTEX
  8
gm2
 10
0.753400
 20
-0.481500
  0
VERTEX
  8
gm2
 10
0.753400
 20
-0.461500
  0
VERTEX
  8
gm2
 10
0.733400
 20
-0.441500
  0
SEQEND
  8
gm2
  0
POLYLINE
  8
gm2
 62
1
 40
0.000000
 41
0.000000
 66
  1
  0
VERTEX
  8
gm2
 10
0.999500
 20
-0.410500
  0
VERTEX
  8
gm2
 10
0.999500
 20
-0.160500
  0
SEQEND
  8
gm2
  0
POLYLINE
  8
gm2
 62
1
 40
0.000000
 41
0.000000
 66
  1
  0
VERTEX
  8
gm2
 10
0.749500
 20
-0.410500
  0
VERTEX
  8
gm2
 10
0.749500
 20
-0.160500
  0
SEQEND
  8
gm2
  0
POLYLINE
  8
gm2
 62
1
 40
0.000000
 41
0.000000
 66
  1
  0
VERTEX
  8
gm2
 10
0.499500
 20
-0.410500
  0
VERTEX
  8
gm2
 10
0.499500
 20
-0.160500
  0
SEQEND
  8
gm2
  0
POLYLINE
  8
gm2
 62
1
 40
0.000000
 41
0.000000
 66
  1
  0
VERTEX
  8
gm2
 10
0.249500
 20
-0.410500
  0
VERTEX
  8
gm2
 10
0.249500
 20
-0.160500
  0
SEQEND
  8
gm2
  0
POLYLINE
  8
gm2
 62
1
 40
0.000000
 41
0.000000
 66
  1
  0
VERTEX
  8
gm2
 10
0.124500
 20
-0.410500
  0
VERTEX
  8
gm2
 10
0.124500
 20
-0.160500
  0
SEQEND
  8
gm2
  0
POLYLINE
  8
gm2
 62
1
 40
0.000000
 41
0.000000
 66
  1
  0
VERTEX
  8
gm2
 10
-0.000500
 20
-0.410500
  0
VERTEX
  8
gm2
 10
-0.000500
 20
-0.160500
  0
SEQEND
  8
gm2
  0
POLYLINE
  8
gm2
 62
1
 40
0.000000
 41
0.000000
 66
  1
  0
VERTEX
  8
gm2
 10
-0.000500
 20
-0.285500
  0
VERTEX
  8
gm2
 10
0.999500
 20
-0.285500
  0
SEQEND
  8
gm2
  0
POLYLINE
  8
gm2
 62
1
 40
0.000000
 41
0.000000
 66
  1
  0
VERTEX
  8
gm2
 10
-0.000500
 20
-0.410500
  0
VERTEX
  8
gm2
 10
0.999500
 20
-0.410500
  0
SEQEND
  8
gm2
  0
POLYLINE
  8
gm2
 62
1
 40
0.000000
 41
0.000000
 66
  1
  0
VERTEX
  8
gm2
 10
-0.000500
 20
-0.160500
  0
VERTEX
  8
gm2
 10
0.999500
 20
-0.160500
  0
SEQEND
  8
gm2
  0
INSERT
  8
gpb
  2
D16
 10
0.107000
 20
0.748000
 41
1.0
 42
1.0
 43
1.0
 50
0.0
  0
INSERT
  8
gpb
  2
D16
 10
0.107000
 20
1.093000
 41
1.0
 42
1.0
 43
1.0
 50
0.0
  0
INSERT
  8
gpb
  2
D29
 10
1.812000
 20
1.052000
 41
1.0
 42
1.0
 43
1.0
 50
0.0
  0
INSERT
  8
gpb
  2
D29
 10
1.552000
 20
1.052000
 41
1.0
 42
1.0
 43
1.0
 50
0.0
  0
INSERT
  8
gpb
  2
D29
 10
1.552000
 20
0.792000
 41
1.0
 42
1.0
 43
1.0
 50
0.0
  0
INSERT
  8
gpb
  2
D29
 10
1.812000
 20
0.792000
 41
1.0
 42
1.0
 43
1.0
 50
0.0
  0
INSERT
  8
gpb
  2
D29
 10
1.194000
 20
0.191000
 41
1.0
 42
1.0
 43
1.0
 50
0.0
  0
INSERT
  8
gpb
  2
D29
 10
1.194000
 20
0.451000
 41
1.0
 42
1.0
 43
1.0
 50
0.0
  0
INSERT
  8
gpb
  2
D29
 10
0.934000
 20
0.451000
 41
1.0
 42
1.0
 43
1.0
 50
0.0
  0
INSERT
  8
gpb
  2
D29
 10
0.934000
 20
0.191000
 41
1.0
 42
1.0
 43
1.0
 50
0.0
  0
INSERT
  8
gpb
  2
D30
 10
1.682000
 20
0.922000
 41
1.0
 42
1.0
 43
1.0
 50
0.0
  0
INSERT
  8
gpb
  2
D30
 10
1.064000
 20
0.321000
 41
1.0
 42
1.0
 43
1.0
 50
0.0
  0
INSERT
  8
gpb
  2
D30
 10
0.671000
 20
1.424000
 41
1.0
 42
1.0
 43
1.0
 50
0.0
  0
INSERT
  8
gpb
  2
D30
 10
1.361000
 20
1.419000
 41
1.0
 42
1.0
 43
1.0
 50
0.0
  0
INSERT
  8
gpb
  2
D31
 10
0.193000
 20
0.197000
 41
1.0
 42
1.0
 43
1.0
 50
0.0
  0
INSERT
  8
gpb
  2
D31
 10
1.817000
 20
1.970000
 41
1.0
 42
1.0
 43
1.0
 50
0.0
  0
INSERT
  8
gpb
  2
D31
 10
0.192000
 20
1.975000
 41
1.0
 42
1.0
 43
1.0
 50
0.0
  0
INSERT
  8
gpb
  2
D31
 10
1.816000
 20
0.195000
 41
1.0
 42
1.0
 43
1.0
 50
0.0
  0
INSERT
  8
gpb
  2
D32
 10
0.671000
 20
2.027000
 41
1.0
 42
1.0
 43
1.0
 50
0.0
  0
INSERT
  8
gpb
  2
D32
 10
1.361000
 20
2.022000
 41
1.0
 42
1.0
 43
1.0
 50
0.0
  0
INSERT
  8
gpb
  2
D33
 10
0.765000
 20
0.421000
 41
1.0
 42
1.0
 43
1.0
 50
0.0
  0
INSERT
  8
gpb
  2
D34
 10
0.665000
 20
0.421000
 41
1.0
 42
1.0
 43
1.0
 50
0.0
  0
INSERT
  8
gpb
  2
D34
 10
0.765000
 20
0.321000
 41
1.0
 42
1.0
 43
1.0
 50
0.0
  0
INSERT
  8
gpb
  2
D34
 10
0.665000
 20
0.321000
 41
1.0
 42
1.0
 43
1.0
 50
0.0
  0
INSERT
  8
gpb
  2
D34
 10
0.765000
 20
0.221000
 41
1.0
 42
1.0
 43
1.0
 50
0.0
  0
INSERT
  8
gpb
  2
D34
 10
0.665000
 20
0.221000
 41
1.0
 42
1.0
 43
1.0
 50
0.0
  0
INSERT
  8
gpb
  2
D35
 10
0.242000
 20
1.093000
 41
1.0
 42
1.0
 43
1.0
 50
0.0
  0
INSERT
  8
gpb
  2
D35
 10
0.242000
 20
0.748000
 41
1.0
 42
1.0
 43
1.0
 50
0.0
  0
INSERT
  8
gpt
  2
D20
 10
0.803000
 20
0.920000
 41
1.0
 42
1.0
 43
1.0
 50
0.0
  0
INSERT
  8
gpt
  2
D20
 10
0.803000
 20
0.857000
 41
1.0
 42
1.0
 43
1.0
 50
0.0
  0
INSERT
  8
gpt
  2
D22
 10
1.014000
 20
1.053000
 41
1.0
 42
1.0
 43
1.0
 50
0.0
  0
INSERT
  8
gpt
  2
D22
 10
1.014000
 20
0.990000
 41
1.0
 42
1.0
 43
1.0
 50
0.0
  0
INSERT
  8
gpt
  2
D22
 10
1.014000
 20
0.855000
 41
1.0
 42
1.0
 43
1.0
 50
0.0
  0
INSERT
  8
gpt
  2
D22
 10
1.014000
 20
0.792000
 41
1.0
 42
1.0
 43
1.0
 50
0.0
  0
INSERT
  8
gpt
  2
D26
 10
1.201000
 20
1.532000
 41
1.0
 42
1.0
 43
1.0
 50
0.0
  0
INSERT
  8
gpt
  2
D26
 10
1.264000
 20
1.532000
 41
1.0
 42
1.0
 43
1.0
 50
0.0
  0
INSERT
  8
gpt
  2
D26
 10
0.682000
 20
0.126000
 41
1.0
 42
1.0
 43
1.0
 50
0.0
  0
INSERT
  8
gpt
  2
D26
 10
0.745000
 20
0.126000
 41
1.0
 42
1.0
 43
1.0
 50
0.0
  0
INSERT
  8
gpt
  2
D27
 10
1.017000
 20
1.755000
 41
1.0
 42
1.0
 43
1.0
 50
0.0
  0
INSERT
  8
gpt
  2
D20
 10
0.741000
 20
0.920000
 41
1.0
 42
1.0
 43
1.0
 50
0.0
  0
INSERT
  8
gpt
  2
D20
 10
0.678000
 20
0.920000
 41
1.0
 42
1.0
 43
1.0
 50
0.0
  0
INSERT
  8
gpt
  2
D40
 10
1.258000
 20
1.417000
 41
1.0
 42
1.0
 43
1.0
 50
0.0
  0
INSERT
  8
gpt
  2
D40
 10
1.146000
 20
1.417000
 41
1.0
 42
1.0
 43
1.0
 50
0.0
  0
INSERT
  8
gpt
  2
D16
 10
0.107000
 20
0.748000
 41
1.0
 42
1.0
 43
1.0
 50
0.0
  0
INSERT
  8
gpt
  2
D16
 10
0.107000
 20
1.093000
 41
1.0
 42
1.0
 43
1.0
 50
0.0
  0
INSERT
  8
gpt
  2
D42
 10
0.107000
 20
0.920000
 41
1.0
 42
1.0
 43
1.0
 50
0.0
  0
INSERT
  8
gpt
  2
D10
 10
1.015000
 20
0.922000
 41
1.0
 42
1.0
 43
1.0
 50
0.0
  0
INSERT
  8
gpt
  2
D10
 10
1.004000
 20
0.911000
 41
1.0
 42
1.0
 43
1.0
 50
0.0
  0
INSERT
  8
gpt
  2
D10
 10
1.004000
 20
0.933000
 41
1.0
 42
1.0
 43
1.0
 50
0.0
  0
INSERT
  8
gpt
  2
D10
 10
0.993000
 20
0.922000
 41
1.0
 42
1.0
 43
1.0
 50
0.0
  0
INSERT
  8
gpt
  2
D29
 10
1.812000
 20
1.052000
 41
1.0
 42
1.0
 43
1.0
 50
0.0
  0
INSERT
  8
gpt
  2
D29
 10
1.552000
 20
1.052000
 41
1.0
 42
1.0
 43
1.0
 50
0.0
  0
INSERT
  8
gpt
  2
D29
 10
1.552000
 20
0.792000
 41
1.0
 42
1.0
 43
1.0
 50
0.0
  0
INSERT
  8
gpt
  2
D29
 10
1.812000
 20
0.792000
 41
1.0
 42
1.0
 43
1.0
 50
0.0
  0
INSERT
  8
gpt
  2
D29
 10
1.194000
 20
0.191000
 41
1.0
 42
1.0
 43
1.0
 50
0.0
  0
INSERT
  8
gpt
  2
D29
 10
1.194000
 20
0.451000
 41
1.0
 42
1.0
 43
1.0
 50
0.0
  0
INSERT
  8
gpt
  2
D29
 10
0.934000
 20
0.451000
 41
1.0
 42
1.0
 43
1.0
 50
0.0
  0
INSERT
  8
gpt
  2
D29
 10
0.934000
 20
0.191000
 41
1.0
 42
1.0
 43
1.0
 50
0.0
  0
INSERT
  8
gpt
  2
D30
 10
1.682000
 20
0.922000
 41
1.0
 42
1.0
 43
1.0
 50
0.0
  0
INSERT
  8
gpt
  2
D30
 10
1.064000
 20
0.321000
 41
1.0
 42
1.0
 43
1.0
 50
0.0
  0
INSERT
  8
gpt
  2
D30
 10
0.671000
 20
1.424000
 41
1.0
 42
1.0
 43
1.0
 50
0.0
  0
INSERT
  8
gpt
  2
D30
 10
1.361000
 20
1.419000
 41
1.0
 42
1.0
 43
1.0
 50
0.0
  0
INSERT
  8
gpt
  2
D31
 10
0.193000
 20
0.197000
 41
1.0
 42
1.0
 43
1.0
 50
0.0
  0
INSERT
  8
gpt
  2
D31
 10
1.817000
 20
1.970000
 41
1.0
 42
1.0
 43
1.0
 50
0.0
  0
INSERT
  8
gpt
  2
D31
 10
0.192000
 20
1.975000
 41
1.0
 42
1.0
 43
1.0
 50
0.0
  0
INSERT
  8
gpt
  2
D31
 10
1.816000
 20
0.195000
 41
1.0
 42
1.0
 43
1.0
 50
0.0
  0
INSERT
  8
gpt
  2
D32
 10
0.671000
 20
2.027000
 41
1.0
 42
1.0
 43
1.0
 50
0.0
  0
INSERT
  8
gpt
  2
D32
 10
1.361000
 20
2.022000
 41
1.0
 42
1.0
 43
1.0
 50
0.0
  0
INSERT
  8
gpt
  2
D33
 10
0.765000
 20
0.421000
 41
1.0
 42
1.0
 43
1.0
 50
0.0
  0
INSERT
  8
gpt
  2
D34
 10
0.665000
 20
0.421000
 41
1.0
 42
1.0
 43
1.0
 50
0.0
  0
INSERT
  8
gpt
  2
D34
 10
0.765000
 20
0.321000
 41
1.0
 42
1.0
 43
1.0
 50
0.0
  0
INSERT
  8
gpt
  2
D34
 10
0.665000
 20
0.321000
 41
1.0
 42
1.0
 43
1.0
 50
0.0
  0
INSERT
  8
gpt
  2
D34
 10
0.765000
 20
0.221000
 41
1.0
 42
1.0
 43
1.0
 50
0.0
  0
INSERT
  8
gpt
  2
D34
 10
0.665000
 20
0.221000
 41
1.0
 42
1.0
 43
1.0
 50
0.0
  0
INSERT
  8
gpt
  2
D35
 10
0.242000
 20
1.093000
 41
1.0
 42
1.0
 43
1.0
 50
0.0
  0
INSERT
  8
gpt
  2
D35
 10
0.242000
 20
0.748000
 41
1.0
 42
1.0
 43
1.0
 50
0.0
  0
POLYLINE
  8
gto
 62
1
 40
0.000000
 41
0.000000
 66
  1
  0
VERTEX
  8
gto
 10
1.470000
 20
0.377000
  0
VERTEX
  8
gto
 10
1.470000
 20
0.378000
  0
VERTEX
  8
gto
 10
1.471000
 20
0.378000
  0
VERTEX
  8
gto
 10
1.471000
 20
0.379000
  0
VERTEX
  8
gto
 10
1.471000
 20
0.380000
  0
VERTEX
  8
gto
 10
1.471000
 20
0.381000
  0
VERTEX
  8
gto
 10
1.471000
 20
0.382000
  0
VERTEX
  8
gto
 10
1.472000
 20
0.382000
  0
VERTEX
  8
gto
 10
1.472000
 20
0.383000
  0
VERTEX
  8
gto
 10
1.472000
 20
0.384000
  0
VERTEX
  8
gto
 10
1.472000
 20
0.385000
  0
VERTEX
  8
gto
 10
1.472000
 20
0.386000
  0
VERTEX
  8
gto
 10
1.472000
 20
0.387000
  0
VERTEX
  8
gto
 10
1.472000
 20
0.388000
  0
VERTEX
  8
gto
 10
1.472000
 20
0.389000
  0
VERTEX
  8
gto
 10
1.473000
 20
0.389000
  0
VERTEX
  8
gto
 10
1.473000
 20
0.390000
  0
VERTEX
  8
gto
 10
1.473000
 20
0.391000
  0
VERTEX
  8
gto
 10
1.473000
 20
0.392000
  0
VERTEX
  8
gto
 10
1.473000
 20
0.393000
  0
VERTEX
  8
gto
 10
1.474000
 20
0.393000
  0
VERTEX
  8
gto
 10
1.474000
 20
0.394000
  0
VERTEX
  8
gto
 10
1.491000
 20
0.394000
  0
VERTEX
  8
gto
 10
1.491000
 20
0.393000
  0
VERTEX
  8
gto
 10
1.491000
 20
0.392000
  0
VERTEX
  8
gto
 10
1.491000
 20
0.391000
  0
VERTEX
  8
gto
 10
1.490000
 20
0.391000
  0
VERTEX
  8
gto
 10
1.490000
 20
0.390000
  0
VERTEX
  8
gto
 10
1.490000
 20
0.389000
  0
VERTEX
  8
gto
 10
1.490000
 20
0.388000
  0
VERTEX
  8
gto
 10
1.490000
 20
0.387000
  0
VERTEX
  8
gto
 10
1.489000
 20
0.387000
  0
VERTEX
  8
gto
 10
1.489000
 20
0.386000
  0
VERTEX
  8
gto
 10
1.489000
 20
0.385000
  0
VERTEX
  8
gto
 10
1.489000
 20
0.384000
  0
VERTEX
  8
gto
 10
1.489000
 20
0.383000
  0
VERTEX
  8
gto
 10
1.488000
 20
0.383000
  0
VERTEX
  8
gto
 10
1.488000
 20
0.382000
  0
VERTEX
  8
gto
 10
1.488000
 20
0.381000
  0
VERTEX
  8
gto
 10
1.488000
 20
0.380000
  0
VERTEX
  8
gto
 10
1.488000
 20
0.379000
  0
VERTEX
  8
gto
 10
1.488000
 20
0.378000
  0
VERTEX
  8
gto
 10
1.488000
 20
0.377000
  0
VERTEX
  8
gto
 10
1.470000
 20
0.377000
  0
SEQEND
  8
gto
  0
POLYLINE
  8
gto
 62
1
 40
0.000000
 41
0.000000
 66
  1
  0
VERTEX
  8
gto
 10
1.454000
 20
0.295000
  0
VERTEX
  8
gto
 10
1.454000
 20
0.296000
  0
VERTEX
  8
gto
 10
1.454000
 20
0.297000
  0
VERTEX
  8
gto
 10
1.454000
 20
0.298000
  0
VERTEX
  8
gto
 10
1.455000
 20
0.298000
  0
VERTEX
  8
gto
 10
1.455000
 20
0.299000
  0
VERTEX
  8
gto
 10
1.455000
 20
0.300000
  0
VERTEX
  8
gto
 10
1.455000
 20
0.301000
  0
VERTEX
  8
gto
 10
1.456000
 20
0.301000
  0
VERTEX
  8
gto
 10
1.456000
 20
0.302000
  0
VERTEX
  8
gto
 10
1.456000
 20
0.303000
  0
VERTEX
  8
gto
 10
1.456000
 20
0.304000
  0
VERTEX
  8
gto
 10
1.456000
 20
0.305000
  0
VERTEX
  8
gto
 10
1.456000
 20
0.306000
  0
VERTEX
  8
gto
 10
1.456000
 20
0.307000
  0
VERTEX
  8
gto
 10
1.456000
 20
0.308000
  0
VERTEX
  8
gto
 10
1.456000
 20
0.309000
  0
VERTEX
  8
gto
 10
1.457000
 20
0.309000
  0
VERTEX
  8
gto
 10
1.457000
 20
0.310000
  0
VERTEX
  8
gto
 10
1.457000
 20
0.311000
  0
VERTEX
  8
gto
 10
1.457000
 20
0.312000
  0
VERTEX
  8
gto
 10
1.458000
 20
0.312000
  0
VERTEX
  8
gto
 10
1.458000
 20
0.313000
  0
VERTEX
  8
gto
 10
1.458000
 20
0.314000
  0
VERTEX
  8
gto
 10
1.458000
 20
0.315000
  0
VERTEX
  8
gto
 10
1.458000
 20
0.316000
  0
VERTEX
  8
gto
 10
1.459000
 20
0.316000
  0
VERTEX
  8
gto
 10
1.459000
 20
0.317000
  0
VERTEX
  8
gto
 10
1.459000
 20
0.318000
  0
VERTEX
  8
gto
 10
1.459000
 20
0.319000
  0
VERTEX
  8
gto
 10
1.459000
 20
0.320000
  0
VERTEX
  8
gto
 10
1.459000
 20
0.321000
  0
VERTEX
  8
gto
 10
1.459000
 20
0.322000
  0
VERTEX
  8
gto
 10
1.459000
 20
0.323000
  0
VERTEX
  8
gto
 10
1.460000
 20
0.323000
  0
VERTEX
  8
gto
 10
1.460000
 20
0.324000
  0
VERTEX
  8
gto
 10
1.460000
 20
0.325000
  0
VERTEX
  8
gto
 10
1.460000
 20
0.326000
  0
VERTEX
  8
gto
 10
1.460000
 20
0.327000
  0
VERTEX
  8
gto
 10
1.461000
 20
0.327000
  0
VERTEX
  8
gto
 10
1.461000
 20
0.328000
  0
VERTEX
  8
gto
 10
1.461000
 20
0.329000
  0
VERTEX
  8
gto
 10
1.461000
 20
0.330000
  0
VERTEX
  8
gto
 10
1.461000
 20
0.331000
  0
VERTEX
  8
gto
 10
1.461000
 20
0.332000
  0
VERTEX
  8
gto
 10
1.461000
 20
0.333000
  0
VERTEX
  8
gto
 10
1.461000
 20
0.334000
  0
VERTEX
  8
gto
 10
1.462000
 20
0.334000
  0
VERTEX
  8
gto
 10
1.462000
 20
0.335000
  0
VERTEX
  8
gto
 10
1.462000
 20
0.336000
  0
VERTEX
  8
gto
 10
1.462000
 20
0.337000
  0
VERTEX
  8
gto
 10
1.462000
 20
0.338000
  0
VERTEX
  8
gto
 10
1.463000
 20
0.338000
  0
VERTEX
  8
gto
 10
1.463000
 20
0.339000
  0
VERTEX
  8
gto
 10
1.463000
 20
0.340000
  0
VERTEX
  8
gto
 10
1.463000
 20
0.341000
  0
VERTEX
  8
gto
 10
1.464000
 20
0.341000
  0
VERTEX
  8
gto
 10
1.464000
 20
0.342000
  0
VERTEX
  8
gto
 10
1.464000
 20
0.343000
  0
VERTEX
  8
gto
 10
1.464000
 20
0.344000
  0
VERTEX
  8
gto
 10
1.464000
 20
0.345000
  0
VERTEX
  8
gto
 10
1.464000
 20
0.346000
  0
VERTEX
  8
gto
 10
1.464000
 20
0.347000
  0
VERTEX
  8
gto
 10
1.464000
 20
0.348000
  0
VERTEX
  8
gto
 10
1.464000
 20
0.349000
  0
VERTEX
  8
gto
 10
1.465000
 20
0.349000
  0
VERTEX
  8
gto
 10
1.465000
 20
0.350000
  0
VERTEX
  8
gto
 10
1.465000
 20
0.351000
  0
VERTEX
  8
gto
 10
1.465000
 20
0.352000
  0
VERTEX
  8
gto
 10
1.466000
 20
0.352000
  0
VERTEX
  8
gto
 10
1.466000
 20
0.353000
  0
VERTEX
  8
gto
 10
1.466000
 20
0.354000
  0
VERTEX
  8
gto
 10
1.466000
 20
0.355000
  0
VERTEX
  8
gto
 10
1.466000
 20
0.356000
  0
VERTEX
  8
gto
 10
1.467000
 20
0.356000
  0
VERTEX
  8
gto
 10
1.467000
 20
0.357000
  0
VERTEX
  8
gto
 10
1.467000
 20
0.358000
  0
VERTEX
  8
gto
 10
1.467000
 20
0.359000
  0
VERTEX
  8
gto
 10
1.467000
 20
0.360000
  0
VERTEX
  8
gto
 10
1.467000
 20
0.361000
  0
VERTEX
  8
gto
 10
1.467000
 20
0.362000
  0
VERTEX
  8
gto
 10
1.467000
 20
0.363000
  0
VERTEX
  8
gto
 10
1.468000
 20
0.363000
  0
VERTEX
  8
gto
 10
1.468000
 20
0.364000
  0
VERTEX
  8
gto
 10
1.468000
 20
0.365000
  0
VERTEX
  8
gto
 10
1.468000
 20
0.366000
  0
VERTEX
  8
gto
 10
1.468000
 20
0.367000
  0
VERTEX
  8
gto
 10
1.469000
 20
0.367000
  0
VERTEX
  8
gto
 10
1.469000
 20
0.368000
  0
VERTEX
  8
gto
 10
1.469000
 20
0.369000
  0
VERTEX
  8
gto
 10
1.469000
 20
0.370000
  0
VERTEX
  8
gto
 10
1.486000
 20
0.370000
  0
VERTEX
  8
gto
 10
1.486000
 20
0.369000
  0
VERTEX
  8
gto
 10
1.486000
 20
0.368000
  0
VERTEX
  8
gto
 10
1.485000
 20
0.368000
  0
VERTEX
  8
gto
 10
1.485000
 20
0.367000
  0
VERTEX
  8
gto
 10
1.485000
 20
0.366000
  0
VERTEX
  8
gto
 10
1.485000
 20
0.365000
  0
VERTEX
  8
gto
 10
1.485000
 20
0.364000
  0
VERTEX
  8
gto
 10
1.485000
 20
0.363000
  0
VERTEX
  8
gto
 10
1.485000
 20
0.362000
  0
VERTEX
  8
gto
 10
1.485000
 20
0.361000
  0
VERTEX
  8
gto
 10
1.484000
 20
0.361000
  0
VERTEX
  8
gto
 10
1.484000
 20
0.360000
  0
VERTEX
  8
gto
 10
1.484000
 20
0.359000
  0
VERTEX
  8
gto
 10
1.484000
 20
0.358000
  0
VERTEX
  8
gto
 10
1.484000
 20
0.357000
  0
VERTEX
  8
gto
 10
1.483000
 20
0.357000
  0
VERTEX
  8
gto
 10
1.483000
 20
0.356000
  0
VERTEX
  8
gto
 10
1.483000
 20
0.355000
  0
VERTEX
  8
gto
 10
1.483000
 20
0.354000
  0
VERTEX
  8
gto
 10
1.483000
 20
0.353000
  0
VERTEX
  8
gto
 10
1.483000
 20
0.352000
  0
VERTEX
  8
gto
 10
1.483000
 20
0.351000
  0
VERTEX
  8
gto
 10
1.483000
 20
0.350000
  0
VERTEX
  8
gto
 10
1.482000
 20
0.350000
  0
VERTEX
  8
gto
 10
1.482000
 20
0.349000
  0
VERTEX
  8
gto
 10
1.482000
 20
0.348000
  0
VERTEX
  8
gto
 10
1.482000
 20
0.347000
  0
VERTEX
  8
gto
 10
1.482000
 20
0.346000
  0
VERTEX
  8
gto
 10
1.481000
 20
0.346000
  0
VERTEX
  8
gto
 10
1.481000
 20
0.345000
  0
VERTEX
  8
gto
 10
1.481000
 20
0.344000
  0
VERTEX
  8
gto
 10
1.481000
 20
0.343000
  0
VERTEX
  8
gto
 10
1.480000
 20
0.343000
  0
VERTEX
  8
gto
 10
1.480000
 20
0.342000
  0
VERTEX
  8
gto
 10
1.480000
 20
0.341000
  0
VERTEX
  8
gto
 10
1.480000
 20
0.340000
  0
VERTEX
  8
gto
 10
1.480000
 20
0.339000
  0
VERTEX
  8
gto
 10
1.480000
 20
0.338000
  0
VERTEX
  8
gto
 10
1.480000
 20
0.337000
  0
VERTEX
  8
gto
 10
1.480000
 20
0.336000
  0
VERTEX
  8
gto
 10
1.480000
 20
0.335000
  0
VERTEX
  8
gto
 10
1.479000
 20
0.335000
  0
VERTEX
  8
gto
 10
1.479000
 20
0.334000
  0
VERTEX
  8
gto
 10
1.479000
 20
0.333000
  0
VERTEX
  8
gto
 10
1.479000
 20
0.332000
  0
VERTEX
  8
gto
 10
1.478000
 20
0.332000
  0
VERTEX
  8
gto
 10
1.478000
 20
0.331000
  0
VERTEX
  8
gto
 10
1.478000
 20
0.330000
  0
VERTEX
  8
gto
 10
1.478000
 20
0.329000
  0
VERTEX
  8
gto
 10
1.478000
 20
0.328000
  0
VERTEX
  8
gto
 10
1.477000
 20
0.328000
  0
VERTEX
  8
gto
 10
1.477000
 20
0.327000
  0
VERTEX
  8
gto
 10
1.477000
 20
0.326000
  0
VERTEX
  8
gto
 10
1.477000
 20
0.325000
  0
VERTEX
  8
gto
 10
1.477000
 20
0.324000
  0
VERTEX
  8
gto
 10
1.477000
 20
0.323000
  0
VERTEX
  8
gto
 10
1.477000
 20
0.322000
  0
VERTEX
  8
gto
 10
1.477000
 20
0.321000
  0
VERTEX
  8
gto
 10
1.476000
 20
0.321000
  0
VERTEX
  8
gto
 10
1.476000
 20
0.320000
  0
VERTEX
  8
gto
 10
1.476000
 20
0.319000
  0
VERTEX
  8
gto
 10
1.476000
 20
0.318000
  0
VERTEX
  8
gto
 10
1.476000
 20
0.317000
  0
VERTEX
  8
gto
 10
1.475000
 20
0.317000
  0
VERTEX
  8
gto
 10
1.475000
 20
0.316000
  0
VERTEX
  8
gto
 10
1.475000
 20
0.315000
  0
VERTEX
  8
gto
 10
1.475000
 20
0.314000
  0
VERTEX
  8
gto
 10
1.475000
 20
0.313000
  0
VERTEX
  8
gto
 10
1.475000
 20
0.312000
  0
VERTEX
  8
gto
 10
1.475000
 20
0.311000
  0
VERTEX
  8
gto
 10
1.475000
 20
0.310000
  0
VERTEX
  8
gto
 10
1.474000
 20
0.310000
  0
VERTEX
  8
gto
 10
1.474000
 20
0.309000
  0
VERTEX
  8
gto
 10
1.474000
 20
0.308000
  0
VERTEX
  8
gto
 10
1.474000
 20
0.307000
  0
VERTEX
  8
gto
 10
1.474000
 20
0.306000
  0
VERTEX
  8
gto
 10
1.473000
 20
0.306000
  0
VERTEX
  8
gto
 10
1.473000
 20
0.305000
  0
VERTEX
  8
gto
 10
1.473000
 20
0.304000
  0
VERTEX
  8
gto
 10
1.473000
 20
0.303000
  0
VERTEX
  8
gto
 10
1.472000
 20
0.303000
  0
VERTEX
  8
gto
 10
1.472000
 20
0.302000
  0
VERTEX
  8
gto
 10
1.472000
 20
0.301000
  0
VERTEX
  8
gto
 10
1.472000
 20
0.300000
  0
VERTEX
  8
gto
 10
1.472000
 20
0.299000
  0
VERTEX
  8
gto
 10
1.472000
 20
0.298000
  0
VERTEX
  8
gto
 10
1.472000
 20
0.297000
  0
VERTEX
  8
gto
 10
1.472000
 20
0.296000
  0
VERTEX
  8
gto
 10
1.472000
 20
0.295000
  0
VERTEX
  8
gto
 10
1.454000
 20
0.295000
  0
SEQEND
  8
gto
  0
POLYLINE
  8
gto
 62
1
 40
0.000000
 41
0.000000
 66
  1
  0
VERTEX
  8
gto
 10
1.358000
 20
0.329000
  0
VERTEX
  8
gto
 10
1.358000
 20
0.330000
  0
VERTEX
  8
gto
 10
1.358000
 20
0.331000
  0
VERTEX
  8
gto
 10
1.358000
 20
0.332000
  0
VERTEX
  8
gto
 10
1.358000
 20
0.333000
  0
VERTEX
  8
gto
 10
1.358000
 20
0.334000
  0
VERTEX
  8
gto
 10
1.358000
 20
0.335000
  0
VERTEX
  8
gto
 10
1.408000
 20
0.335000
  0
VERTEX
  8
gto
 10
1.408000
 20
0.336000
  0
VERTEX
  8
gto
 10
1.408000
 20
0.337000
  0
VERTEX
  8
gto
 10
1.408000
 20
0.338000
  0
VERTEX
  8
gto
 10
1.408000
 20
0.339000
  0
VERTEX
  8
gto
 10
1.408000
 20
0.340000
  0
VERTEX
  8
gto
 10
1.408000
 20
0.341000
  0
VERTEX
  8
gto
 10
1.408000
 20
0.342000
  0
VERTEX
  8
gto
 10
1.408000
 20
0.343000
  0
VERTEX
  8
gto
 10
1.408000
 20
0.344000
  0
VERTEX
  8
gto
 10
1.408000
 20
0.345000
  0
VERTEX
  8
gto
 10
1.408000
 20
0.346000
  0
VERTEX
  8
gto
 10
1.408000
 20
0.347000
  0
VERTEX
  8
gto
 10
1.408000
 20
0.348000
  0
VERTEX
  8
gto
 10
1.408000
 20
0.349000
  0
VERTEX
  8
gto
 10
1.408000
 20
0.350000
  0
VERTEX
  8
gto
 10
1.408000
 20
0.351000
  0
VERTEX
  8
gto
 10
1.408000
 20
0.352000
  0
VERTEX
  8
gto
 10
1.408000
 20
0.353000
  0
VERTEX
  8
gto
 10
1.408000
 20
0.354000
  0
VERTEX
  8
gto
 10
1.408000
 20
0.355000
  0
VERTEX
  8
gto
 10
1.408000
 20
0.356000
  0
VERTEX
  8
gto
 10
1.408000
 20
0.357000
  0
VERTEX
  8
gto
 10
1.408000
 20
0.358000
  0
VERTEX
  8
gto
 10
1.408000
 20
0.359000
  0
VERTEX
  8
gto
 10
1.408000
 20
0.360000
  0
VERTEX
  8
gto
 10
1.408000
 20
0.361000
  0
VERTEX
  8
gto
 10
1.408000
 20
0.362000
  0
VERTEX
  8
gto
 10
1.408000
 20
0.363000
  0
VERTEX
  8
gto
 10
1.408000
 20
0.364000
  0
VERTEX
  8
gto
 10
1.408000
 20
0.365000
  0
VERTEX
  8
gto
 10
1.408000
 20
0.366000
  0
VERTEX
  8
gto
 10
1.408000
 20
0.367000
  0
VERTEX
  8
gto
 10
1.408000
 20
0.368000
  0
VERTEX
  8
gto
 10
1.408000
 20
0.369000
  0
VERTEX
  8
gto
 10
1.408000
 20
0.370000
  0
VERTEX
  8
gto
 10
1.408000
 20
0.371000
  0
VERTEX
  8
gto
 10
1.408000
 20
0.372000
  0
VERTEX
  8
gto
 10
1.408000
 20
0.373000
  0
VERTEX
  8
gto
 10
1.408000
 20
0.374000
  0
VERTEX
  8
gto
 10
1.408000
 20
0.375000
  0
VERTEX
  8
gto
 10
1.408000
 20
0.376000
  0
VERTEX
  8
gto
 10
1.408000
 20
0.377000
  0
VERTEX
  8
gto
 10
1.408000
 20
0.378000
  0
VERTEX
  8
gto
 10
1.408000
 20
0.379000
  0
VERTEX
  8
gto
 10
1.408000
 20
0.380000
  0
VERTEX
  8
gto
 10
1.408000
 20
0.381000
  0
VERTEX
  8
gto
 10
1.408000
 20
0.382000
  0
VERTEX
  8
gto
 10
1.408000
 20
0.383000
  0
VERTEX
  8
gto
 10
1.408000
 20
0.384000
  0
VERTEX
  8
gto
 10
1.408000
 20
0.385000
  0
VERTEX
  8
gto
 10
1.408000
 20
0.386000
  0
VERTEX
  8
gto
 10
1.408000
 20
0.387000
  0
VERTEX
  8
gto
 10
1.408000
 20
0.388000
  0
VERTEX
  8
gto
 10
1.408000
 20
0.389000
  0
VERTEX
  8
gto
 10
1.408000
 20
0.390000
  0
VERTEX
  8
gto
 10
1.408000
 20
0.391000
  0
VERTEX
  8
gto
 10
1.408000
 20
0.392000
  0
VERTEX
  8
gto
 10
1.408000
 20
0.393000
  0
VERTEX
  8
gto
 10
1.408000
 20
0.394000
  0
VERTEX
  8
gto
 10
1.408000
 20
0.395000
  0
VERTEX
  8
gto
 10
1.408000
 20
0.396000
  0
VERTEX
  8
gto
 10
1.408000
 20
0.397000
  0
VERTEX
  8
gto
 10
1.408000
 20
0.398000
  0
VERTEX
  8
gto
 10
1.408000
 20
0.399000
  0
VERTEX
  8
gto
 10
1.408000
 20
0.400000
  0
VERTEX
  8
gto
 10
1.408000
 20
0.401000
  0
VERTEX
  8
gto
 10
1.408000
 20
0.402000
  0
VERTEX
  8
gto
 10
1.408000
 20
0.403000
  0
VERTEX
  8
gto
 10
1.450000
 20
0.403000
  0
VERTEX
  8
gto
 10
1.450000
 20
0.402000
  0
VERTEX
  8
gto
 10
1.450000
 20
0.401000
  0
VERTEX
  8
gto
 10
1.450000
 20
0.400000
  0
VERTEX
  8
gto
 10
1.450000
 20
0.399000
  0
VERTEX
  8
gto
 10
1.450000
 20
0.398000
  0
VERTEX
  8
gto
 10
1.450000
 20
0.397000
  0
VERTEX
  8
gto
 10
1.450000
 20
0.396000
  0
VERTEX
  8
gto
 10
1.450000
 20
0.395000
  0
VERTEX
  8
gto
 10
1.450000
 20
0.394000
  0
VERTEX
  8
gto
 10
1.450000
 20
0.393000
  0
VERTEX
  8
gto
 10
1.450000
 20
0.392000
  0
VERTEX
  8
gto
 10
1.450000
 20
0.391000
  0
VERTEX
  8
gto
 10
1.450000
 20
0.390000
  0
VERTEX
  8
gto
 10
1.450000
 20
0.389000
  0
VERTEX
  8
gto
 10
1.450000
 20
0.388000
  0
VERTEX
  8
gto
 10
1.450000
 20
0.387000
  0
VERTEX
  8
gto
 10
1.450000
 20
0.386000
  0
VERTEX
  8
gto
 10
1.450000
 20
0.385000
  0
VERTEX
  8
gto
 10
1.450000
 20
0.384000
  0
VERTEX
  8
gto
 10
1.450000
 20
0.383000
  0
VERTEX
  8
gto
 10
1.450000
 20
0.382000
  0
VERTEX
  8
gto
 10
1.450000
 20
0.381000
  0
VERTEX
  8
gto
 10
1.450000
 20
0.380000
  0
VERTEX
  8
gto
 10
1.450000
 20
0.379000
  0
VERTEX
  8
gto
 10
1.450000
 20
0.378000
  0
VERTEX
  8
gto
 10
1.450000
 20
0.377000
  0
VERTEX
  8
gto
 10
1.450000
 20
0.376000
  0
VERTEX
  8
gto
 10
1.450000
 20
0.375000
  0
VERTEX
  8
gto
 10
1.450000
 20
0.374000
  0
VERTEX
  8
gto
 10
1.450000
 20
0.373000
  0
VERTEX
  8
gto
 10
1.450000
 20
0.372000
  0
VERTEX
  8
gto
 10
1.450000
 20
0.371000
  0
VERTEX
  8
gto
 10
1.450000
 20
0.370000
  0
VERTEX
  8
gto
 10
1.461000
 20
0.370000
  0
VERTEX
  8
gto
 10
1.461000
 20
0.369000
  0
VERTEX
  8
gto
 10
1.461000
 20
0.368000
  0
VERTEX
  8
gto
 10
1.461000
 20
0.367000
  0
VERTEX
  8
gto
 10
1.461000
 20
0.366000
  0
VERTEX
  8
gto
 10
1.461000
 20
0.365000
  0
VERTEX
  8
gto
 10
1.460000
 20
0.365000
  0
VERTEX
  8
gto
 10
1.460000
 20
0.364000
  0
VERTEX
  8
gto
 10
1.460000
 20
0.363000
  0
VERTEX
  8
gto
 10
1.460000
 20
0.362000
  0
VERTEX
  8
gto
 10
1.459000
 20
0.362000
  0
VERTEX
  8
gto
 10
1.459000
 20
0.361000
  0
VERTEX
  8
gto
 10
1.459000
 20
0.360000
  0
VERTEX
  8
gto
 10
1.459000
 20
0.359000
  0
VERTEX
  8
gto
 10
1.459000
 20
0.358000
  0
VERTEX
  8
gto
 10
1.459000
 20
0.357000
  0
VERTEX
  8
gto
 10
1.459000
 20
0.356000
  0
VERTEX
  8
gto
 10
1.459000
 20
0.355000
  0
VERTEX
  8
gto
 10
1.459000
 20
0.354000
  0
VERTEX
  8
gto
 10
1.458000
 20
0.354000
  0
VERTEX
  8
gto
 10
1.458000
 20
0.353000
  0
VERTEX
  8
gto
 10
1.458000
 20
0.352000
  0
VERTEX
  8
gto
 10
1.458000
 20
0.351000
  0
VERTEX
  8
gto
 10
1.457000
 20
0.351000
  0
VERTEX
  8
gto
 10
1.457000
 20
0.350000
  0
VERTEX
  8
gto
 10
1.457000
 20
0.349000
  0
VERTEX
  8
gto
 10
1.457000
 20
0.348000
  0
VERTEX
  8
gto
 10
1.445000
 20
0.348000
  0
VERTEX
  8
gto
 10
1.445000
 20
0.347000
  0
VERTEX
  8
gto
 10
1.445000
 20
0.346000
  0
VERTEX
  8
gto
 10
1.444000
 20
0.346000
  0
VERTEX
  8
gto
 10
1.444000
 20
0.345000
  0
VERTEX
  8
gto
 10
1.444000
 20
0.344000
  0
VERTEX
  8
gto
 10
1.444000
 20
0.343000
  0
VERTEX
  8
gto
 10
1.444000
 20
0.342000
  0
VERTEX
  8
gto
 10
1.443000
 20
0.342000
  0
VERTEX
  8
gto
 10
1.443000
 20
0.341000
  0
VERTEX
  8
gto
 10
1.443000
 20
0.340000
  0
VERTEX
  8
gto
 10
1.443000
 20
0.339000
  0
VERTEX
  8
gto
 10
1.443000
 20
0.338000
  0
VERTEX
  8
gto
 10
1.443000
 20
0.337000
  0
VERTEX
  8
gto
 10
1.443000
 20
0.336000
  0
VERTEX
  8
gto
 10
1.443000
 20
0.335000
  0
VERTEX
  8
gto
 10
1.442000
 20
0.335000
  0
VERTEX
  8
gto
 10
1.442000
 20
0.334000
  0
VERTEX
  8
gto
 10
1.442000
 20
0.333000
  0
VERTEX
  8
gto
 10
1.442000
 20
0.332000
  0
VERTEX
  8
gto
 10
1.442000
 20
0.331000
  0
VERTEX
  8
gto
 10
1.441000
 20
0.331000
  0
VERTEX
  8
gto
 10
1.441000
 20
0.330000
  0
VERTEX
  8
gto
 10
1.441000
 20
0.329000
  0
VERTEX
  8
gto
 10
1.441000
 20
0.328000
  0
VERTEX
  8
gto
 10
1.441000
 20
0.327000
  0
VERTEX
  8
gto
 10
1.453000
 20
0.327000
  0
VERTEX
  8
gto
 10
1.453000
 20
0.326000
  0
VERTEX
  8
gto
 10
1.453000
 20
0.325000
  0
VERTEX
  8
gto
 10
1.452000
 20
0.325000
  0
VERTEX
  8
gto
 10
1.452000
 20
0.324000
  0
VERTEX
  8
gto
 10
1.452000
 20
0.323000
  0
VERTEX
  8
gto
 10
1.452000
 20
0.322000
  0
VERTEX
  8
gto
 10
1.452000
 20
0.321000
  0
VERTEX
  8
gto
 10
1.451000
 20
0.321000
  0
VERTEX
  8
gto
 10
1.451000
 20
0.320000
  0
VERTEX
  8
gto
 10
1.451000
 20
0.319000
  0
VERTEX
  8
gto
 10
1.451000
 20
0.318000
  0
VERTEX
  8
gto
 10
1.451000
 20
0.317000
  0
VERTEX
  8
gto
 10
1.451000
 20
0.316000
  0
VERTEX
  8
gto
 10
1.451000
 20
0.315000
  0
VERTEX
  8
gto
 10
1.451000
 20
0.314000
  0
VERTEX
  8
gto
 10
1.450000
 20
0.314000
  0
VERTEX
  8
gto
 10
1.450000
 20
0.313000
  0
VERTEX
  8
gto
 10
1.450000
 20
0.312000
  0
VERTEX
  8
gto
 10
1.450000
 20
0.311000
  0
VERTEX
  8
gto
 10
1.450000
 20
0.310000
  0
VERTEX
  8
gto
 10
1.449000
 20
0.310000
  0
VERTEX
  8
gto
 10
1.449000
 20
0.309000
  0
VERTEX
  8
gto
 10
1.449000
 20
0.308000
  0
VERTEX
  8
gto
 10
1.449000
 20
0.307000
  0
VERTEX
  8
gto
 10
1.449000
 20
0.306000
  0
VERTEX
  8
gto
 10
1.448000
 20
0.306000
  0
VERTEX
  8
gto
 10
1.448000
 20
0.305000
  0
VERTEX
  8
gto
 10
1.448000
 20
0.304000
  0
VERTEX
  8
gto
 10
1.448000
 20
0.303000
  0
VERTEX
  8
gto
 10
1.448000
 20
0.302000
  0
VERTEX
  8
gto
 10
1.448000
 20
0.301000
  0
VERTEX
  8
gto
 10
1.448000
 20
0.300000
  0
VERTEX
  8
gto
 10
1.448000
 20
0.299000
  0
VERTEX
  8
gto
 10
1.447000
 20
0.299000
  0
VERTEX
  8
gto
 10
1.447000
 20
0.298000
  0
VERTEX
  8
gto
 10
1.447000
 20
0.297000
  0
VERTEX
  8
gto
 10
1.447000
 20
0.296000
  0
VERTEX
  8
gto
 10
1.447000
 20
0.295000
  0
VERTEX
  8
gto
 10
1.446000
 20
0.295000
  0
VERTEX
  8
gto
 10
1.446000
 20
0.294000
  0
VERTEX
  8
gto
 10
1.446000
 20
0.293000
  0
VERTEX
  8
gto
 10
1.446000
 20
0.292000
  0
VERTEX
  8
gto
 10
1.445000
 20
0.292000
  0
VERTEX
  8
gto
 10
1.445000
 20
0.291000
  0
VERTEX
  8
gto
 10
1.445000
 20
0.290000
  0
VERTEX
  8
gto
 10
1.445000
 20
0.289000
  0
VERTEX
  8
gto
 10
1.445000
 20
0.288000
  0
VERTEX
  8
gto
 10
1.445000
 20
0.287000
  0
VERTEX
  8
gto
 10
1.445000
 20
0.286000
  0
VERTEX
  8
gto
 10
1.445000
 20
0.285000
  0
VERTEX
  8
gto
 10
1.445000
 20
0.284000
  0
VERTEX
  8
gto
 10
1.445000
 20
0.283000
  0
VERTEX
  8
gto
 10
1.445000
 20
0.282000
  0
VERTEX
  8
gto
 10
1.445000
 20
0.281000
  0
VERTEX
  8
gto
 10
1.445000
 20
0.280000
  0
VERTEX
  8
gto
 10
1.446000
 20
0.280000
  0
VERTEX
  8
gto
 10
1.446000
 20
0.279000
  0
VERTEX
  8
gto
 10
1.447000
 20
0.279000
  0
VERTEX
  8
gto
 10
1.447000
 20
0.278000
  0
VERTEX
  8
gto
 10
1.448000
 20
0.278000
  0
VERTEX
  8
gto
 10
1.448000
 20
0.277000
  0
VERTEX
  8
gto
 10
1.450000
 20
0.277000
  0
VERTEX
  8
gto
 10
1.450000
 20
0.276000
  0
VERTEX
  8
gto
 10
1.451000
 20
0.276000
  0
VERTEX
  8
gto
 10
1.451000
 20
0.275000
  0
VERTEX
  8
gto
 10
1.454000
 20
0.275000
  0
VERTEX
  8
gto
 10
1.454000
 20
0.274000
  0
VERTEX
  8
gto
 10
1.459000
 20
0.274000
  0
VERTEX
  8
gto
 10
1.487000
 20
0.274000
  0
VERTEX
  8
gto
 10
1.487000
 20
0.275000
  0
VERTEX
  8
gto
 10
1.487000
 20
0.276000
  0
VERTEX
  8
gto
 10
1.488000
 20
0.276000
  0
VERTEX
  8
gto
 10
1.488000
 20
0.277000
  0
VERTEX
  8
gto
 10
1.488000
 20
0.278000
  0
VERTEX
  8
gto
 10
1.488000
 20
0.279000
  0
VERTEX
  8
gto
 10
1.488000
 20
0.280000
  0
VERTEX
  8
gto
 10
1.488000
 20
0.281000
  0
VERTEX
  8
gto
 10
1.488000
 20
0.282000
  0
VERTEX
  8
gto
 10
1.488000
 20
0.283000
  0
VERTEX
  8
gto
 10
1.489000
 20
0.283000
  0
VERTEX
  8
gto
 10
1.489000
 20
0.284000
  0
VERTEX
  8
gto
 10
1.489000
 20
0.285000
  0
VERTEX
  8
gto
 10
1.489000
 20
0.286000
  0
VERTEX
  8
gto
 10
1.489000
 20
0.287000
  0
VERTEX
  8
gto
 10
1.490000
 20
0.287000
  0
VERTEX
  8
gto
 10
1.490000
 20
0.288000
  0
VERTEX
  8
gto
 10
1.490000
 20
0.289000
  0
VERTEX
  8
gto
 10
1.490000
 20
0.290000
  0
VERTEX
  8
gto
 10
1.491000
 20
0.290000
  0
VERTEX
  8
gto
 10
1.491000
 20
0.291000
  0
VERTEX
  8
gto
 10
1.491000
 20
0.292000
  0
VERTEX
  8
gto
 10
1.491000
 20
0.293000
  0
VERTEX
  8
gto
 10
1.491000
 20
0.294000
  0
VERTEX
  8
gto
 10
1.491000
 20
0.295000
  0
VERTEX
  8
gto
 10
1.482000
 20
0.295000
  0
VERTEX
  8
gto
 10
1.482000
 20
0.296000
  0
VERTEX
  8
gto
 10
1.480000
 20
0.296000
  0
VERTEX
  8
gto
 10
1.480000
 20
0.297000
  0
VERTEX
  8
gto
 10
1.480000
 20
0.298000
  0
VERTEX
  8
gto
 10
1.480000
 20
0.299000
  0
VERTEX
  8
gto
 10
1.480000
 20
0.300000
  0
VERTEX
  8
gto
 10
1.480000
 20
0.301000
  0
VERTEX
  8
gto
 10
1.480000
 20
0.302000
  0
VERTEX
  8
gto
 10
1.480000
 20
0.303000
  0
VERTEX
  8
gto
 10
1.480000
 20
0.304000
  0
VERTEX
  8
gto
 10
1.480000
 20
0.305000
  0
VERTEX
  8
gto
 10
1.480000
 20
0.306000
  0
VERTEX
  8
gto
 10
1.481000
 20
0.306000
  0
VERTEX
  8
gto
 10
1.481000
 20
0.307000
  0
VERTEX
  8
gto
 10
1.481000
 20
0.308000
  0
VERTEX
  8
gto
 10
1.481000
 20
0.309000
  0
VERTEX
  8
gto
 10
1.481000
 20
0.310000
  0
VERTEX
  8
gto
 10
1.482000
 20
0.310000
  0
VERTEX
  8
gto
 10
1.482000
 20
0.311000
  0
VERTEX
  8
gto
 10
1.482000
 20
0.312000
  0
VERTEX
  8
gto
 10
1.482000
 20
0.313000
  0
VERTEX
  8
gto
 10
1.482000
 20
0.314000
  0
VERTEX
  8
gto
 10
1.483000
 20
0.314000
  0
VERTEX
  8
gto
 10
1.483000
 20
0.315000
  0
VERTEX
  8
gto
 10
1.483000
 20
0.316000
  0
VERTEX
  8
gto
 10
1.483000
 20
0.317000
  0
VERTEX
  8
gto
 10
1.483000
 20
0.318000
  0
VERTEX
  8
gto
 10
1.483000
 20
0.319000
  0
VERTEX
  8
gto
 10
1.483000
 20
0.320000
  0
VERTEX
  8
gto
 10
1.483000
 20
0.321000
  0
VERTEX
  8
gto
 10
1.484000
 20
0.321000
  0
VERTEX
  8
gto
 10
1.484000
 20
0.322000
  0
VERTEX
  8
gto
 10
1.484000
 20
0.323000
  0
VERTEX
  8
gto
 10
1.484000
 20
0.324000
  0
VERTEX
  8
gto
 10
1.484000
 20
0.325000
  0
VERTEX
  8
gto
 10
1.485000
 20
0.325000
  0
VERTEX
  8
gto
 10
1.485000
 20
0.326000
  0
VERTEX
  8
gto
 10
1.485000
 20
0.327000
  0
VERTEX
  8
gto
 10
1.498000
 20
0.327000
  0
VERTEX
  8
gto
 10
1.498000
 20
0.328000
  0
VERTEX
  8
gto
 10
1.498000
 20
0.329000
  0
VERTEX
  8
gto
 10
1.498000
 20
0.330000
  0
VERTEX
  8
gto
 10
1.498000
 20
0.331000
  0
VERTEX
  8
gto
 10
1.499000
 20
0.331000
  0
VERTEX
  8
gto
 10
1.499000
 20
0.332000
  0
VERTEX
  8
gto
 10
1.499000
 20
0.333000
  0
VERTEX
  8
gto
 10
1.499000
 20
0.334000
  0
VERTEX
  8
gto
 10
1.499000
 20
0.335000
  0
VERTEX
  8
gto
 10
1.499000
 20
0.336000
  0
VERTEX
  8
gto
 10
1.499000
 20
0.337000
  0
VERTEX
  8
gto
 10
1.499000
 20
0.338000
  0
VERTEX
  8
gto
 10
1.500000
 20
0.338000
  0
VERTEX
  8
gto
 10
1.500000
 20
0.339000
  0
VERTEX
  8
gto
 10
1.500000
 20
0.340000
  0
VERTEX
  8
gto
 10
1.500000
 20
0.341000
  0
VERTEX
  8
gto
 10
1.500000
 20
0.342000
  0
VERTEX
  8
gto
 10
1.501000
 20
0.342000
  0
VERTEX
  8
gto
 10
1.501000
 20
0.343000
  0
VERTEX
  8
gto
 10
1.501000
 20
0.344000
  0
VERTEX
  8
gto
 10
1.501000
 20
0.345000
  0
VERTEX
  8
gto
 10
1.501000
 20
0.346000
  0
VERTEX
  8
gto
 10
1.501000
 20
0.347000
  0
VERTEX
  8
gto
 10
1.501000
 20
0.348000
  0
VERTEX
  8
gto
 10
1.489000
 20
0.348000
  0
VERTEX
  8
gto
 10
1.489000
 20
0.349000
  0
VERTEX
  8
gto
 10
1.489000
 20
0.350000
  0
VERTEX
  8
gto
 10
1.490000
 20
0.350000
  0
VERTEX
  8
gto
 10
1.490000
 20
0.351000
  0
VERTEX
  8
gto
 10
1.490000
 20
0.352000
  0
VERTEX
  8
gto
 10
1.490000
 20
0.353000
  0
VERTEX
  8
gto
 10
1.490000
 20
0.354000
  0
VERTEX
  8
gto
 10
1.491000
 20
0.354000
  0
VERTEX
  8
gto
 10
1.491000
 20
0.355000
  0
VERTEX
  8
gto
 10
1.491000
 20
0.356000
  0
VERTEX
  8
gto
 10
1.491000
 20
0.357000
  0
VERTEX
  8
gto
 10
1.491000
 20
0.358000
  0
VERTEX
  8
gto
 10
1.491000
 20
0.359000
  0
VERTEX
  8
gto
 10
1.491000
 20
0.360000
  0
VERTEX
  8
gto
 10
1.491000
 20
0.361000
  0
VERTEX
  8
gto
 10
1.492000
 20
0.361000
  0
VERTEX
  8
gto
 10
1.492000
 20
0.362000
  0
VERTEX
  8
gto
 10
1.492000
 20
0.363000
  0
VERTEX
  8
gto
 10
1.492000
 20
0.364000
  0
VERTEX
  8
gto
 10
1.492000
 20
0.365000
  0
VERTEX
  8
gto
 10
1.493000
 20
0.365000
  0
VERTEX
  8
gto
 10
1.493000
 20
0.366000
  0
VERTEX
  8
gto
 10
1.493000
 20
0.367000
  0
VERTEX
  8
gto
 10
1.493000
 20
0.368000
  0
VERTEX
  8
gto
 10
1.493000
 20
0.369000
  0
VERTEX
  8
gto
 10
1.493000
 20
0.370000
  0
VERTEX
  8
gto
 10
1.528000
 20
0.370000
  0
VERTEX
  8
gto
 10
1.528000
 20
0.369000
  0
VERTEX
  8
gto
 10
1.528000
 20
0.368000
  0
VERTEX
  8
gto
 10
1.528000
 20
0.367000
  0
VERTEX
  8
gto
 10
1.528000
 20
0.366000
  0
VERTEX
  8
gto
 10
1.528000
 20
0.365000
  0
VERTEX
  8
gto
 10
1.528000
 20
0.364000
  0
VERTEX
  8
gto
 10
1.528000
 20
0.363000
  0
VERTEX
  8
gto
 10
1.528000
 20
0.362000
  0
VERTEX
  8
gto
 10
1.528000
 20
0.361000
  0
VERTEX
  8
gto
 10
1.528000
 20
0.360000
  0
VERTEX
  8
gto
 10
1.528000
 20
0.359000
  0
VERTEX
  8
gto
 10
1.528000
 20
0.358000
  0
VERTEX
  8
gto
 10
1.528000
 20
0.357000
  0
VERTEX
  8
gto
 10
1.528000
 20
0.356000
  0
VERTEX
  8
gto
 10
1.528000
 20
0.355000
  0
VERTEX
  8
gto
 10
1.528000
 20
0.354000
  0
VERTEX
  8
gto
 10
1.528000
 20
0.353000
  0
VERTEX
  8
gto
 10
1.528000
 20
0.352000
  0
VERTEX
  8
gto
 10
1.528000
 20
0.351000
  0
VERTEX
  8
gto
 10
1.528000
 20
0.350000
  0
VERTEX
  8
gto
 10
1.528000
 20
0.349000
  0
VERTEX
  8
gto
 10
1.528000
 20
0.348000
  0
VERTEX
  8
gto
 10
1.528000
 20
0.347000
  0
VERTEX
  8
gto
 10
1.528000
 20
0.346000
  0
VERTEX
  8
gto
 10
1.528000
 20
0.345000
  0
VERTEX
  8
gto
 10
1.529000
 20
0.345000
  0
VERTEX
  8
gto
 10
1.529000
 20
0.344000
  0
VERTEX
  8
gto
 10
1.529000
 20
0.343000
  0
VERTEX
  8
gto
 10
1.529000
 20
0.342000
  0
VERTEX
  8
gto
 10
1.529000
 20
0.341000
  0
VERTEX
  8
gto
 10
1.530000
 20
0.341000
  0
VERTEX
  8
gto
 10
1.530000
 20
0.340000
  0
VERTEX
  8
gto
 10
1.530000
 20
0.339000
  0
VERTEX
  8
gto
 10
1.530000
 20
0.338000
  0
VERTEX
  8
gto
 10
1.531000
 20
0.338000
  0
VERTEX
  8
gto
 10
1.531000
 20
0.337000
  0
VERTEX
  8
gto
 10
1.531000
 20
0.336000
  0
VERTEX
  8
gto
 10
1.531000
 20
0.335000
  0
VERTEX
  8
gto
 10
1.532000
 20
0.335000
  0
VERTEX
  8
gto
 10
1.532000
 20
0.334000
  0
VERTEX
  8
gto
 10
1.533000
 20
0.334000
  0
VERTEX
  8
gto
 10
1.533000
 20
0.333000
  0
VERTEX
  8
gto
 10
1.533000
 20
0.332000
  0
VERTEX
  8
gto
 10
1.534000
 20
0.332000
  0
VERTEX
  8
gto
 10
1.534000
 20
0.331000
  0
VERTEX
  8
gto
 10
1.535000
 20
0.331000
  0
VERTEX
  8
gto
 10
1.535000
 20
0.330000
  0
VERTEX
  8
gto
 10
1.536000
 20
0.330000
  0
VERTEX
  8
gto
 10
1.536000
 20
0.329000
  0
VERTEX
  8
gto
 10
1.538000
 20
0.329000
  0
VERTEX
  8
gto
 10
1.538000
 20
0.328000
  0
VERTEX
  8
gto
 10
1.539000
 20
0.328000
  0
VERTEX
  8
gto
 10
1.539000
 20
0.327000
  0
VERTEX
  8
gto
 10
1.539000
 20
0.326000
  0
VERTEX
  8
gto
 10
1.539000
 20
0.325000
  0
VERTEX
  8
gto
 10
1.539000
 20
0.324000
  0
VERTEX
  8
gto
 10
1.539000
 20
0.323000
  0
VERTEX
  8
gto
 10
1.539000
 20
0.322000
  0
VERTEX
  8
gto
 10
1.539000
 20
0.321000
  0
VERTEX
  8
gto
 10
1.539000
 20
0.320000
  0
VERTEX
  8
gto
 10
1.539000
 20
0.319000
  0
VERTEX
  8
gto
 10
1.539000
 20
0.318000
  0
VERTEX
  8
gto
 10
1.539000
 20
0.317000
  0
VERTEX
  8
gto
 10
1.539000
 20
0.316000
  0
VERTEX
  8
gto
 10
1.539000
 20
0.315000
  0
VERTEX
  8
gto
 10
1.539000
 20
0.314000
  0
VERTEX
  8
gto
 10
1.539000
 20
0.313000
  0
VERTEX
  8
gto
 10
1.539000
 20
0.312000
  0
VERTEX
  8
gto
 10
1.539000
 20
0.311000
  0
VERTEX
  8
gto
 10
1.539000
 20
0.310000
  0
VERTEX
  8
gto
 10
1.539000
 20
0.309000
  0
VERTEX
  8
gto
 10
1.539000
 20
0.308000
  0
VERTEX
  8
gto
 10
1.539000
 20
0.307000
  0
VERTEX
  8
gto
 10
1.539000
 20
0.306000
  0
VERTEX
  8
gto
 10
1.539000
 20
0.305000
  0
VERTEX
  8
gto
 10
1.539000
 20
0.304000
  0
VERTEX
  8
gto
 10
1.539000
 20
0.303000
  0
VERTEX
  8
gto
 10
1.539000
 20
0.302000
  0
VERTEX
  8
gto
 10
1.539000
 20
0.301000
  0
VERTEX
  8
gto
 10
1.539000
 20
0.300000
  0
VERTEX
  8
gto
 10
1.539000
 20
0.299000
  0
VERTEX
  8
gto
 10
1.539000
 20
0.298000
  0
VERTEX
  8
gto
 10
1.539000
 20
0.297000
  0
VERTEX
  8
gto
 10
1.539000
 20
0.296000
  0
VERTEX
  8
gto
 10
1.539000
 20
0.295000
  0
VERTEX
  8
gto
 10
1.539000
 20
0.294000
  0
VERTEX
  8
gto
 10
1.539000
 20
0.293000
  0
VERTEX
  8
gto
 10
1.537000
 20
0.293000
  0
VERTEX
  8
gto
 10
1.537000
 20
0.292000
  0
VERTEX
  8
gto
 10
1.535000
 20
0.292000
  0
VERTEX
  8
gto
 10
1.535000
 20
0.291000
  0
VERTEX
  8
gto
 10
1.532000
 20
0.291000
  0
VERTEX
  8
gto
 10
1.532000
 20
0.290000
  0
VERTEX
  8
gto
 10
1.530000
 20
0.290000
  0
VERTEX
  8
gto
 10
1.528000
 20
0.290000
  0
VERTEX
  8
gto
 10
1.528000
 20
0.289000
  0
VERTEX
  8
gto
 10
1.525000
 20
0.289000
  0
VERTEX
  8
gto
 10
1.525000
 20
0.288000
  0
VERTEX
  8
gto
 10
1.524000
 20
0.288000
  0
VERTEX
  8
gto
 10
1.524000
 20
0.287000
  0
VERTEX
  8
gto
 10
1.522000
 20
0.287000
  0
VERTEX
  8
gto
 10
1.520000
 20
0.287000
  0
VERTEX
  8
gto
 10
1.520000
 20
0.286000
  0
VERTEX
  8
gto
 10
1.519000
 20
0.286000
  0
VERTEX
  8
gto
 10
1.519000
 20
0.285000
  0
VERTEX
  8
gto
 10
1.517000
 20
0.285000
  0
VERTEX
  8
gto
 10
1.516000
 20
0.285000
  0
VERTEX
  8
gto
 10
1.516000
 20
0.284000
  0
VERTEX
  8
gto
 10
1.515000
 20
0.284000
  0
VERTEX
  8
gto
 10
1.515000
 20
0.283000
  0
VERTEX
  8
gto
 10
1.513000
 20
0.283000
  0
VERTEX
  8
gto
 10
1.513000
 20
0.282000
  0
VERTEX
  8
gto
 10
1.512000
 20
0.282000
  0
VERTEX
  8
gto
 10
1.511000
 20
0.282000
  0
VERTEX
  8
gto
 10
1.511000
 20
0.281000
  0
VERTEX
  8
gto
 10
1.509000
 20
0.281000
  0
VERTEX
  8
gto
 10
1.509000
 20
0.280000
  0
VERTEX
  8
gto
 10
1.508000
 20
0.280000
  0
VERTEX
  8
gto
 10
1.508000
 20
0.279000
  0
VERTEX
  8
gto
 10
1.507000
 20
0.279000
  0
VERTEX
  8
gto
 10
1.507000
 20
0.278000
  0
VERTEX
  8
gto
 10
1.505000
 20
0.278000
  0
VERTEX
  8
gto
 10
1.505000
 20
0.277000
  0
VERTEX
  8
gto
 10
1.504000
 20
0.277000
  0
VERTEX
  8
gto
 10
1.504000
 20
0.276000
  0
VERTEX
  8
gto
 10
1.502000
 20
0.276000
  0
VERTEX
  8
gto
 10
1.502000
 20
0.275000
  0
VERTEX
  8
gto
 10
1.501000
 20
0.275000
  0
VERTEX
  8
gto
 10
1.501000
 20
0.274000
  0
VERTEX
  8
gto
 10
1.500000
 20
0.274000
  0
VERTEX
  8
gto
 10
1.500000
 20
0.273000
  0
VERTEX
  8
gto
 10
1.499000
 20
0.273000
  0
VERTEX
  8
gto
 10
1.499000
 20
0.272000
  0
VERTEX
  8
gto
 10
1.499000
 20
0.271000
  0
VERTEX
  8
gto
 10
1.498000
 20
0.271000
  0
VERTEX
  8
gto
 10
1.497000
 20
0.271000
  0
VERTEX
  8
gto
 10
1.497000
 20
0.270000
  0
VERTEX
  8
gto
 10
1.496000
 20
0.270000
  0
VERTEX
  8
gto
 10
1.496000
 20
0.269000
  0
VERTEX
  8
gto
 10
1.495000
 20
0.269000
  0
VERTEX
  8
gto
 10
1.495000
 20
0.268000
  0
VERTEX
  8
gto
 10
1.494000
 20
0.268000
  0
VERTEX
  8
gto
 10
1.494000
 20
0.267000
  0
VERTEX
  8
gto
 10
1.494000
 20
0.266000
  0
VERTEX
  8
gto
 10
1.493000
 20
0.266000
  0
VERTEX
  8
gto
 10
1.493000
 20
0.265000
  0
VERTEX
  8
gto
 10
1.492000
 20
0.265000
  0
VERTEX
  8
gto
 10
1.492000
 20
0.264000
  0
VERTEX
  8
gto
 10
1.492000
 20
0.263000
  0
VERTEX
  8
gto
 10
1.491000
 20
0.263000
  0
VERTEX
  8
gto
 10
1.491000
 20
0.262000
  0
VERTEX
  8
gto
 10
1.491000
 20
0.261000
  0
VERTEX
  8
gto
 10
1.490000
 20
0.261000
  0
VERTEX
  8
gto
 10
1.490000
 20
0.260000
  0
VERTEX
  8
gto
 10
1.489000
 20
0.260000
  0
VERTEX
  8
gto
 10
1.489000
 20
0.259000
  0
VERTEX
  8
gto
 10
1.489000
 20
0.258000
  0
VERTEX
  8
gto
 10
1.488000
 20
0.258000
  0
VERTEX
  8
gto
 10
1.488000
 20
0.257000
  0
VERTEX
  8
gto
 10
1.488000
 20
0.256000
  0
VERTEX
  8
gto
 10
1.488000
 20
0.255000
  0
VERTEX
  8
gto
 10
1.487000
 20
0.255000
  0
VERTEX
  8
gto
 10
1.487000
 20
0.254000
  0
VERTEX
  8
gto
 10
1.487000
 20
0.253000
  0
VERTEX
  8
gto
 10
1.487000
 20
0.252000
  0
VERTEX
  8
gto
 10
1.486000
 20
0.252000
  0
VERTEX
  8
gto
 10
1.486000
 20
0.251000
  0
VERTEX
  8
gto
 10
1.486000
 20
0.250000
  0
VERTEX
  8
gto
 10
1.486000
 20
0.249000
  0
VERTEX
  8
gto
 10
1.486000
 20
0.248000
  0
VERTEX
  8
gto
 10
1.486000
 20
0.247000
  0
VERTEX
  8
gto
 10
1.486000
 20
0.246000
  0
VERTEX
  8
gto
 10
1.486000
 20
0.245000
  0
VERTEX
  8
gto
 10
1.486000
 20
0.244000
  0
VERTEX
  8
gto
 10
1.486000
 20
0.243000
  0
VERTEX
  8
gto
 10
1.486000
 20
0.242000
  0
VERTEX
  8
gto
 10
1.486000
 20
0.241000
  0
VERTEX
  8
gto
 10
1.487000
 20
0.241000
  0
VERTEX
  8
gto
 10
1.487000
 20
0.240000
  0
VERTEX
  8
gto
 10
1.487000
 20
0.239000
  0
VERTEX
  8
gto
 10
1.487000
 20
0.238000
  0
VERTEX
  8
gto
 10
1.487000
 20
0.237000
  0
VERTEX
  8
gto
 10
1.488000
 20
0.237000
  0
VERTEX
  8
gto
 10
1.488000
 20
0.236000
  0
VERTEX
  8
gto
 10
1.488000
 20
0.235000
  0
VERTEX
  8
gto
 10
1.488000
 20
0.234000
  0
VERTEX
  8
gto
 10
1.488000
 20
0.233000
  0
VERTEX
  8
gto
 10
1.488000
 20
0.232000
  0
VERTEX
  8
gto
 10
1.489000
 20
0.232000
  0
VERTEX
  8
gto
 10
1.489000
 20
0.231000
  0
VERTEX
  8
gto
 10
1.490000
 20
0.231000
  0
VERTEX
  8
gto
 10
1.490000
 20
0.230000
  0
VERTEX
  8
gto
 10
1.490000
 20
0.229000
  0
VERTEX
  8
gto
 10
1.488000
 20
0.229000
  0
VERTEX
  8
gto
 10
1.486000
 20
0.229000
  0
VERTEX
  8
gto
 10
1.486000
 20
0.228000
  0
VERTEX
  8
gto
 10
1.483000
 20
0.228000
  0
VERTEX
  8
gto
 10
1.483000
 20
0.227000
  0
VERTEX
  8
gto
 10
1.475000
 20
0.227000
  0
VERTEX
  8
gto
 10
1.475000
 20
0.228000
  0
VERTEX
  8
gto
 10
1.471000
 20
0.228000
  0
VERTEX
  8
gto
 10
1.471000
 20
0.229000
  0
VERTEX
  8
gto
 10
1.469000
 20
0.229000
  0
VERTEX
  8
gto
 10
1.467000
 20
0.229000
  0
VERTEX
  8
gto
 10
1.467000
 20
0.230000
  0
VERTEX
  8
gto
 10
1.465000
 20
0.230000
  0
VERTEX
  8
gto
 10
1.465000
 20
0.231000
  0
VERTEX
  8
gto
 10
1.464000
 20
0.231000
  0
VERTEX
  8
gto
 10
1.464000
 20
0.232000
  0
VERTEX
  8
gto
 10
1.463000
 20
0.232000
  0
VERTEX
  8
gto
 10
1.461000
 20
0.232000
  0
VERTEX
  8
gto
 10
1.461000
 20
0.233000
  0
VERTEX
  8
gto
 10
1.461000
 20
0.234000
  0
VERTEX
  8
gto
 10
1.459000
 20
0.234000
  0
VERTEX
  8
gto
 10
1.459000
 20
0.235000
  0
VERTEX
  8
gto
 10
1.458000
 20
0.235000
  0
VERTEX
  8
gto
 10
1.458000
 20
0.236000
  0
VERTEX
  8
gto
 10
1.456000
 20
0.236000
  0
VERTEX
  8
gto
 10
1.456000
 20
0.237000
  0
VERTEX
  8
gto
 10
1.455000
 20
0.237000
  0
VERTEX
  8
gto
 10
1.455000
 20
0.238000
  0
VERTEX
  8
gto
 10
1.454000
 20
0.238000
  0
VERTEX
  8
gto
 10
1.454000
 20
0.239000
  0
VERTEX
  8
gto
 10
1.453000
 20
0.239000
  0
VERTEX
  8
gto
 10
1.453000
 20
0.240000
  0
VERTEX
  8
gto
 10
1.452000
 20
0.240000
  0
VERTEX
  8
gto
 10
1.452000
 20
0.241000
  0
VERTEX
  8
gto
 10
1.451000
 20
0.241000
  0
VERTEX
  8
gto
 10
1.451000
 20
0.242000
  0
VERTEX
  8
gto
 10
1.451000
 20
0.243000
  0
VERTEX
  8
gto
 10
1.450000
 20
0.243000
  0
VERTEX
  8
gto
 10
1.450000
 20
0.244000
  0
VERTEX
  8
gto
 10
1.449000
 20
0.244000
  0
VERTEX
  8
gto
 10
1.449000
 20
0.245000
  0
VERTEX
  8
gto
 10
1.448000
 20
0.245000
  0
VERTEX
  8
gto
 10
1.448000
 20
0.246000
  0
VERTEX
  8
gto
 10
1.448000
 20
0.247000
  0
VERTEX
  8
gto
 10
1.447000
 20
0.247000
  0
VERTEX
  8
gto
 10
1.447000
 20
0.248000
  0
VERTEX
  8
gto
 10
1.446000
 20
0.248000
  0
VERTEX
  8
gto
 10
1.446000
 20
0.249000
  0
VERTEX
  8
gto
 10
1.446000
 20
0.250000
  0
VERTEX
  8
gto
 10
1.445000
 20
0.250000
  0
VERTEX
  8
gto
 10
1.445000
 20
0.251000
  0
VERTEX
  8
gto
 10
1.445000
 20
0.252000
  0
VERTEX
  8
gto
 10
1.444000
 20
0.252000
  0
VERTEX
  8
gto
 10
1.444000
 20
0.253000
  0
VERTEX
  8
gto
 10
1.443000
 20
0.253000
  0
VERTEX
  8
gto
 10
1.443000
 20
0.254000
  0
VERTEX
  8
gto
 10
1.443000
 20
0.255000
  0
VERTEX
  8
gto
 10
1.443000
 20
0.256000
  0
VERTEX
  8
gto
 10
1.442000
 20
0.256000
  0
VERTEX
  8
gto
 10
1.442000
 20
0.257000
  0
VERTEX
  8
gto
 10
1.442000
 20
0.258000
  0
VERTEX
  8
gto
 10
1.441000
 20
0.258000
  0
VERTEX
  8
gto
 10
1.441000
 20
0.259000
  0
VERTEX
  8
gto
 10
1.440000
 20
0.259000
  0
VERTEX
  8
gto
 10
1.440000
 20
0.260000
  0
VERTEX
  8
gto
 10
1.440000
 20
0.261000
  0
VERTEX
  8
gto
 10
1.440000
 20
0.262000
  0
VERTEX
  8
gto
 10
1.439000
 20
0.262000
  0
VERTEX
  8
gto
 10
1.439000
 20
0.263000
  0
VERTEX
  8
gto
 10
1.438000
 20
0.263000
  0
VERTEX
  8
gto
 10
1.438000
 20
0.264000
  0
VERTEX
  8
gto
 10
1.438000
 20
0.265000
  0
VERTEX
  8
gto
 10
1.437000
 20
0.265000
  0
VERTEX
  8
gto
 10
1.437000
 20
0.266000
  0
VERTEX
  8
gto
 10
1.437000
 20
0.267000
  0
VERTEX
  8
gto
 10
1.437000
 20
0.268000
  0
VERTEX
  8
gto
 10
1.437000
 20
0.269000
  0
VERTEX
  8
gto
 10
1.436000
 20
0.269000
  0
VERTEX
  8
gto
 10
1.436000
 20
0.270000
  0
VERTEX
  8
gto
 10
1.435000
 20
0.270000
  0
VERTEX
  8
gto
 10
1.435000
 20
0.271000
  0
VERTEX
  8
gto
 10
1.435000
 20
0.272000
  0
VERTEX
  8
gto
 10
1.435000
 20
0.273000
  0
VERTEX
  8
gto
 10
1.434000
 20
0.273000
  0
VERTEX
  8
gto
 10
1.434000
 20
0.274000
  0
VERTEX
  8
gto
 10
1.433000
 20
0.274000
  0
VERTEX
  8
gto
 10
1.433000
 20
0.275000
  0
VERTEX
  8
gto
 10
1.433000
 20
0.276000
  0
VERTEX
  8
gto
 10
1.432000
 20
0.276000
  0
VERTEX
  8
gto
 10
1.432000
 20
0.277000
  0
VERTEX
  8
gto
 10
1.432000
 20
0.278000
  0
VERTEX
  8
gto
 10
1.432000
 20
0.279000
  0
VERTEX
  8
gto
 10
1.431000
 20
0.279000
  0
VERTEX
  8
gto
 10
1.431000
 20
0.280000
  0
VERTEX
  8
gto
 10
1.430000
 20
0.280000
  0
VERTEX
  8
gto
 10
1.430000
 20
0.281000
  0
VERTEX
  8
gto
 10
1.430000
 20
0.282000
  0
VERTEX
  8
gto
 10
1.429000
 20
0.282000
  0
VERTEX
  8
gto
 10
1.429000
 20
0.283000
  0
VERTEX
  8
gto
 10
1.429000
 20
0.284000
  0
VERTEX
  8
gto
 10
1.428000
 20
0.284000
  0
VERTEX
  8
gto
 10
1.428000
 20
0.285000
  0
VERTEX
  8
gto
 10
1.427000
 20
0.285000
  0
VERTEX
  8
gto
 10
1.427000
 20
0.286000
  0
VERTEX
  8
gto
 10
1.426000
 20
0.286000
  0
VERTEX
  8
gto
 10
1.426000
 20
0.287000
  0
VERTEX
  8
gto
 10
1.425000
 20
0.287000
  0
VERTEX
  8
gto
 10
1.424000
 20
0.287000
  0
VERTEX
  8
gto
 10
1.424000
 20
0.288000
  0
VERTEX
  8
gto
 10
1.424000
 20
0.289000
  0
VERTEX
  8
gto
 10
1.422000
 20
0.289000
  0
VERTEX
  8
gto
 10
1.422000
 20
0.290000
  0
VERTEX
  8
gto
 10
1.419000
 20
0.290000
  0
VERTEX
  8
gto
 10
1.418000
 20
0.290000
  0
VERTEX
  8
gto
 10
1.414000
 20
0.290000
  0
VERTEX
  8
gto
 10
1.414000
 20
0.289000
  0
VERTEX
  8
gto
 10
1.413000
 20
0.289000
  0
VERTEX
  8
gto
 10
1.413000
 20
0.288000
  0
VERTEX
  8
gto
 10
1.411000
 20
0.288000
  0
VERTEX
  8
gto
 10
1.411000
 20
0.287000
  0
VERTEX
  8
gto
 10
1.410000
 20
0.287000
  0
VERTEX
  8
gto
 10
1.410000
 20
0.286000
  0
VERTEX
  8
gto
 10
1.409000
 20
0.286000
  0
VERTEX
  8
gto
 10
1.409000
 20
0.285000
  0
VERTEX
  8
gto
 10
1.408000
 20
0.285000
  0
VERTEX
  8
gto
 10
1.408000
 20
0.284000
  0
VERTEX
  8
gto
 10
1.407000
 20
0.284000
  0
VERTEX
  8
gto
 10
1.407000
 20
0.283000
  0
VERTEX
  8
gto
 10
1.406000
 20
0.283000
  0
VERTEX
  8
gto
 10
1.406000
 20
0.282000
  0
VERTEX
  8
gto
 10
1.405000
 20
0.282000
  0
VERTEX
  8
gto
 10
1.405000
 20
0.281000
  0
VERTEX
  8
gto
 10
1.404000
 20
0.281000
  0
VERTEX
  8
gto
 10
1.404000
 20
0.280000
  0
VERTEX
  8
gto
 10
1.403000
 20
0.280000
  0
VERTEX
  8
gto
 10
1.403000
 20
0.279000
  0
VERTEX
  8
gto
 10
1.402000
 20
0.279000
  0
VERTEX
  8
gto
 10
1.396000
 20
0.279000
  0
VERTEX
  8
gto
 10
1.394000
 20
0.279000
  0
VERTEX
  8
gto
 10
1.394000
 20
0.280000
  0
VERTEX
  8
gto
 10
1.392000
 20
0.280000
  0
VERTEX
  8
gto
 10
1.392000
 20
0.281000
  0
VERTEX
  8
gto
 10
1.392000
 20
0.282000
  0
VERTEX
  8
gto
 10
1.391000
 20
0.282000
  0
VERTEX
  8
gto
 10
1.390000
 20
0.282000
  0
VERTEX
  8
gto
 10
1.390000
 20
0.283000
  0
VERTEX
  8
gto
 10
1.390000
 20
0.284000
  0
VERTEX
  8
gto
 10
1.389000
 20
0.284000
  0
VERTEX
  8
gto
 10
1.389000
 20
0.285000
  0
VERTEX
  8
gto
 10
1.388000
 20
0.285000
  0
VERTEX
  8
gto
 10
1.387000
 20
0.285000
  0
VERTEX
  8
gto
 10
1.387000
 20
0.286000
  0
VERTEX
  8
gto
 10
1.387000
 20
0.287000
  0
VERTEX
  8
gto
 10
1.387000
 20
0.288000
  0
VERTEX
  8
gto
 10
1.386000
 20
0.288000
  0
VERTEX
  8
gto
 10
1.386000
 20
0.289000
  0
VERTEX
  8
gto
 10
1.386000
 20
0.290000
  0
VERTEX
  8
gto
 10
1.385000
 20
0.290000
  0
VERTEX
  8
gto
 10
1.385000
 20
0.291000
  0
VERTEX
  8
gto
 10
1.384000
 20
0.291000
  0
VERTEX
  8
gto
 10
1.384000
 20
0.292000
  0
VERTEX
  8
gto
 10
1.384000
 20
0.293000
  0
VERTEX
  8
gto
 10
1.384000
 20
0.294000
  0
VERTEX
  8
gto
 10
1.383000
 20
0.294000
  0
VERTEX
  8
gto
 10
1.383000
 20
0.295000
  0
VERTEX
  8
gto
 10
1.383000
 20
0.296000
  0
VERTEX
  8
gto
 10
1.382000
 20
0.296000
  0
VERTEX
  8
gto
 10
1.382000
 20
0.297000
  0
VERTEX
  8
gto
 10
1.382000
 20
0.298000
  0
VERTEX
  8
gto
 10
1.382000
 20
0.299000
  0
VERTEX
  8
gto
 10
1.382000
 20
0.300000
  0
VERTEX
  8
gto
 10
1.381000
 20
0.300000
  0
VERTEX
  8
gto
 10
1.381000
 20
0.301000
  0
VERTEX
  8
gto
 10
1.380000
 20
0.301000
  0
VERTEX
  8
gto
 10
1.380000
 20
0.302000
  0
VERTEX
  8
gto
 10
1.380000
 20
0.303000
  0
VERTEX
  8
gto
 10
1.379000
 20
0.303000
  0
VERTEX
  8
gto
 10
1.379000
 20
0.304000
  0
VERTEX
  8
gto
 10
1.379000
 20
0.305000
  0
VERTEX
  8
gto
 10
1.379000
 20
0.306000
  0
VERTEX
  8
gto
 10
1.378000
 20
0.306000
  0
VERTEX
  8
gto
 10
1.377000
 20
0.306000
  0
VERTEX
  8
gto
 10
1.377000
 20
0.307000
  0
VERTEX
  8
gto
 10
1.377000
 20
0.308000
  0
VERTEX
  8
gto
 10
1.376000
 20
0.308000
  0
VERTEX
  8
gto
 10
1.376000
 20
0.309000
  0
VERTEX
  8
gto
 10
1.375000
 20
0.309000
  0
VERTEX
  8
gto
 10
1.375000
 20
0.310000
  0
VERTEX
  8
gto
 10
1.374000
 20
0.310000
  0
VERTEX
  8
gto
 10
1.374000
 20
0.311000
  0
VERTEX
  8
gto
 10
1.373000
 20
0.311000
  0
VERTEX
  8
gto
 10
1.373000
 20
0.312000
  0
VERTEX
  8
gto
 10
1.372000
 20
0.312000
  0
VERTEX
  8
gto
 10
1.372000
 20
0.313000
  0
VERTEX
  8
gto
 10
1.371000
 20
0.313000
  0
VERTEX
  8
gto
 10
1.371000
 20
0.314000
  0
VERTEX
  8
gto
 10
1.370000
 20
0.314000
  0
VERTEX
  8
gto
 10
1.370000
 20
0.315000
  0
VERTEX
  8
gto
 10
1.368000
 20
0.315000
  0
VERTEX
  8
gto
 10
1.368000
 20
0.316000
  0
VERTEX
  8
gto
 10
1.368000
 20
0.317000
  0
VERTEX
  8
gto
 10
1.367000
 20
0.317000
  0
VERTEX
  8
gto
 10
1.366000
 20
0.317000
  0
VERTEX
  8
gto
 10
1.366000
 20
0.318000
  0
VERTEX
  8
gto
 10
1.366000
 20
0.319000
  0
VERTEX
  8
gto
 10
1.365000
 20
0.319000
  0
VERTEX
  8
gto
 10
1.364000
 20
0.319000
  0
VERTEX
  8
gto
 10
1.364000
 20
0.320000
  0
VERTEX
  8
gto
 10
1.363000
 20
0.320000
  0
VERTEX
  8
gto
 10
1.363000
 20
0.321000
  0
VERTEX
  8
gto
 10
1.363000
 20
0.322000
  0
VERTEX
  8
gto
 10
1.362000
 20
0.322000
  0
VERTEX
  8
gto
 10
1.362000
 20
0.323000
  0
VERTEX
  8
gto
 10
1.361000
 20
0.323000
  0
VERTEX
  8
gto
 10
1.361000
 20
0.324000
  0
VERTEX
  8
gto
 10
1.361000
 20
0.325000
  0
VERTEX
  8
gto
 10
1.360000
 20
0.325000
  0
VERTEX
  8
gto
 10
1.360000
 20
0.326000
  0
VERTEX
  8
gto
 10
1.360000
 20
0.327000
  0
VERTEX
  8
gto
 10
1.359000
 20
0.327000
  0
VERTEX
  8
gto
 10
1.359000
 20
0.328000
  0
VERTEX
  8
gto
 10
1.359000
 20
0.329000
  0
VERTEX
  8
gto
 10
1.358000
 20
0.329000
  0
SEQEND
  8
gto
  0
POLYLINE
  8
gto
 62
1
 40
0.000000
 41
0.000000
 66
  1
  0
VERTEX
  8
gto
 10
0.615000
 20
0.171000
  0
VERTEX
  8
gto
 10
0.815000
 20
0.171000
  0
SEQEND
  8
gto
  0
POLYLINE
  8
gto
 62
1
 40
0.000000
 41
0.000000
 66
  1
  0
VERTEX
  8
gto
 10
0.615000
 20
0.471000
  0
VERTEX
  8
gto
 10
0.815000
 20
0.471000
  0
SEQEND
  8
gto
  0
POLYLINE
  8
gto
 62
1
 40
0.000000
 41
0.000000
 66
  1
  0
VERTEX
  8
gto
 10
0.615000
 20
0.171000
  0
VERTEX
  8
gto
 10
0.615000
 20
0.471000
  0
SEQEND
  8
gto
  0
POLYLINE
  8
gto
 62
1
 40
0.000000
 41
0.000000
 66
  1
  0
VERTEX
  8
gto
 10
0.815000
 20
0.171000
  0
VERTEX
  8
gto
 10
0.815000
 20
0.471000
  0
SEQEND
  8
gto
  0
POLYLINE
  8
gto
 62
1
 40
0.000000
 41
0.000000
 66
  1
  0
VERTEX
  8
gto
 10
0.815000
 20
0.171000
  0
VERTEX
  8
gto
 10
0.815000
 20
0.363000
  0
SEQEND
  8
gto
  0
POLYLINE
  8
gto
 62
1
 40
0.000000
 41
0.000000
 66
  1
  0
VERTEX
  8
gto
 10
0.036000
 20
1.642000
  0
VERTEX
  8
gto
 10
0.036000
 20
1.594000
  0
VERTEX
  8
gto
 10
0.068000
 20
1.594000
  0
SEQEND
  8
gto
  0
POLYLINE
  8
gto
 62
1
 40
0.000000
 41
0.000000
 66
  1
  0
VERTEX
  8
gto
 10
0.084000
 20
1.594000
  0
VERTEX
  8
gto
 10
0.084000
 20
1.642000
  0
VERTEX
  8
gto
 10
0.099000
 20
1.626000
  0
VERTEX
  8
gto
 10
0.115000
 20
1.642000
  0
VERTEX
  8
gto
 10
0.115000
 20
1.594000
  0
SEQEND
  8
gto
  0
POLYLINE
  8
gto
 62
1
 40
0.000000
 41
0.000000
 66
  1
  0
VERTEX
  8
gto
 10
0.131000
 20
1.642000
  0
VERTEX
  8
gto
 10
0.131000
 20
1.594000
  0
VERTEX
  8
gto
 10
0.131000
 20
1.618000
  0
VERTEX
  8
gto
 10
0.162000
 20
1.618000
  0
VERTEX
  8
gto
 10
0.162000
 20
1.642000
  0
VERTEX
  8
gto
 10
0.162000
 20
1.594000
  0
SEQEND
  8
gto
  0
POLYLINE
  8
gto
 62
1
 40
0.000000
 41
0.000000
 66
  1
  0
VERTEX
  8
gto
 10
0.210000
 20
1.594000
  0
VERTEX
  8
gto
 10
0.178000
 20
1.594000
  0
VERTEX
  8
gto
 10
0.210000
 20
1.626000
  0
VERTEX
  8
gto
 10
0.210000
 20
1.634000
  0
VERTEX
  8
gto
 10
0.202000
 20
1.642000
  0
VERTEX
  8
gto
 10
0.186000
 20
1.642000
  0
VERTEX
  8
gto
 10
0.178000
 20
1.634000
  0
SEQEND
  8
gto
  0
POLYLINE
  8
gto
 62
1
 40
0.000000
 41
0.000000
 66
  1
  0
VERTEX
  8
gto
 10
0.225000
 20
1.594000
  0
VERTEX
  8
gto
 10
0.241000
 20
1.594000
  0
VERTEX
  8
gto
 10
0.233000
 20
1.594000
  0
VERTEX
  8
gto
 10
0.233000
 20
1.642000
  0
VERTEX
  8
gto
 10
0.225000
 20
1.634000
  0
SEQEND
  8
gto
  0
POLYLINE
  8
gto
 62
1
 40
0.000000
 41
0.000000
 66
  1
  0
VERTEX
  8
gto
 10
0.296000
 20
1.594000
  0
VERTEX
  8
gto
 10
0.265000
 20
1.594000
  0
VERTEX
  8
gto
 10
0.296000
 20
1.626000
  0
VERTEX
  8
gto
 10
0.296000
 20
1.634000
  0
VERTEX
  8
gto
 10
0.288000
 20
1.642000
  0
VERTEX
  8
gto
 10
0.273000
 20
1.642000
  0
VERTEX
  8
gto
 10
0.265000
 20
1.634000
  0
SEQEND
  8
gto
  0
POLYLINE
  8
gto
 62
1
 40
0.000000
 41
0.000000
 66
  1
  0
VERTEX
  8
gto
 10
0.312000
 20
1.594000
  0
VERTEX
  8
gto
 10
0.328000
 20
1.594000
  0
VERTEX
  8
gto
 10
0.320000
 20
1.594000
  0
VERTEX
  8
gto
 10
0.320000
 20
1.642000
  0
VERTEX
  8
gto
 10
0.312000
 20
1.634000
  0
SEQEND
  8
gto
  0
POLYLINE
  8
gto
 62
1
 40
0.000000
 41
0.000000
 66
  1
  0
VERTEX
  8
gto
 10
0.351000
 20
1.642000
  0
VERTEX
  8
gto
 10
0.383000
 20
1.642000
  0
VERTEX
  8
gto
 10
0.367000
 20
1.642000
  0
VERTEX
  8
gto
 10
0.367000
 20
1.594000
  0
SEQEND
  8
gto
  0
POLYLINE
  8
gto
 62
1
 40
0.000000
 41
0.000000
 66
  1
  0
VERTEX
  8
gto
 10
0.399000
 20
1.594000
  0
VERTEX
  8
gto
 10
0.399000
 20
1.642000
  0
VERTEX
  8
gto
 10
0.414000
 20
1.626000
  0
VERTEX
  8
gto
 10
0.430000
 20
1.642000
  0
VERTEX
  8
gto
 10
0.430000
 20
1.594000
  0
SEQEND
  8
gto
  0
POLYLINE
  8
gto
 62
1
 40
0.000000
 41
0.000000
 66
  1
  0
VERTEX
  8
gto
 10
0.477000
 20
1.642000
  0
VERTEX
  8
gto
 10
0.446000
 20
1.642000
  0
VERTEX
  8
gto
 10
0.446000
 20
1.594000
  0
VERTEX
  8
gto
 10
0.477000
 20
1.594000
  0
SEQEND
  8
gto
  0
POLYLINE
  8
gto
 62
1
 40
0.000000
 41
0.000000
 66
  1
  0
VERTEX
  8
gto
 10
0.446000
 20
1.618000
  0
VERTEX
  8
gto
 10
0.462000
 20
1.618000
  0
SEQEND
  8
gto
  0
POLYLINE
  8
gto
 62
1
 40
0.000000
 41
0.000000
 66
  1
  0
VERTEX
  8
gto
 10
0.493000
 20
1.642000
  0
VERTEX
  8
gto
 10
0.493000
 20
1.610000
  0
VERTEX
  8
gto
 10
0.509000
 20
1.594000
  0
VERTEX
  8
gto
 10
0.525000
 20
1.610000
  0
VERTEX
  8
gto
 10
0.525000
 20
1.642000
  0
SEQEND
  8
gto
  0
POLYLINE
  8
gto
 62
1
 40
0.000000
 41
0.000000
 66
  1
  0
VERTEX
  8
gto
 10
0.540000
 20
1.594000
  0
VERTEX
  8
gto
 10
0.540000
 20
1.626000
  0
VERTEX
  8
gto
 10
0.556000
 20
1.642000
  0
VERTEX
  8
gto
 10
0.572000
 20
1.626000
  0
VERTEX
  8
gto
 10
0.572000
 20
1.594000
  0
VERTEX
  8
gto
 10
0.572000
 20
1.618000
  0
VERTEX
  8
gto
 10
0.540000
 20
1.618000
  0
SEQEND
  8
gto
  0
POLYLINE
  8
gto
 62
1
 40
0.000000
 41
0.000000
 66
  1
  0
VERTEX
  8
gto
 10
0.587000
 20
1.642000
  0
VERTEX
  8
gto
 10
0.587000
 20
1.594000
  0
VERTEX
  8
gto
 10
0.619000
 20
1.594000
  0
SEQEND
  8
gto
  0
POLYLINE
  8
gto
 62
1
 40
0.000000
 41
0.000000
 66
  1
  0
VERTEX
  8
gto
 10
0.068000
 20
1.563000
  0
VERTEX
  8
gto
 10
0.036000
 20
1.563000
  0
VERTEX
  8
gto
 10
0.036000
 20
1.516000
  0
VERTEX
  8
gto
 10
0.068000
 20
1.516000
  0
SEQEND
  8
gto
  0
POLYLINE
  8
gto
 62
1
 40
0.000000
 41
0.000000
 66
  1
  0
VERTEX
  8
gto
 10
0.036000
 20
1.539000
  0
VERTEX
  8
gto
 10
0.052000
 20
1.539000
  0
SEQEND
  8
gto
  0
POLYLINE
  8
gto
 62
1
 40
0.000000
 41
0.000000
 66
  1
  0
VERTEX
  8
gto
 10
0.084000
 20
1.547000
  0
VERTEX
  8
gto
 10
0.099000
 20
1.516000
  0
VERTEX
  8
gto
 10
0.115000
 20
1.547000
  0
SEQEND
  8
gto
  0
POLYLINE
  8
gto
 62
1
 40
0.000000
 41
0.000000
 66
  1
  0
VERTEX
  8
gto
 10
0.139000
 20
1.547000
  0
VERTEX
  8
gto
 10
0.155000
 20
1.547000
  0
VERTEX
  8
gto
 10
0.162000
 20
1.539000
  0
VERTEX
  8
gto
 10
0.162000
 20
1.516000
  0
VERTEX
  8
gto
 10
0.139000
 20
1.516000
  0
VERTEX
  8
gto
 10
0.131000
 20
1.524000
  0
VERTEX
  8
gto
 10
0.139000
 20
1.531000
  0
VERTEX
  8
gto
 10
0.162000
 20
1.531000
  0
SEQEND
  8
gto
  0
POLYLINE
  8
gto
 62
1
 40
0.000000
 41
0.000000
 66
  1
  0
VERTEX
  8
gto
 10
0.178000
 20
1.516000
  0
VERTEX
  8
gto
 10
0.194000
 20
1.516000
  0
VERTEX
  8
gto
 10
0.186000
 20
1.516000
  0
VERTEX
  8
gto
 10
0.186000
 20
1.563000
  0
VERTEX
  8
gto
 10
0.178000
 20
1.563000
  0
SEQEND
  8
gto
  0
POLYLINE
  8
gto
 62
1
 40
0.000000
 41
0.000000
 66
  1
  0
VERTEX
  8
gto
 10
0.265000
 20
1.563000
  0
VERTEX
  8
gto
 10
0.265000
 20
1.516000
  0
VERTEX
  8
gto
 10
0.288000
 20
1.516000
  0
VERTEX
  8
gto
 10
0.296000
 20
1.524000
  0
VERTEX
  8
gto
 10
0.296000
 20
1.531000
  0
VERTEX
  8
gto
 10
0.288000
 20
1.539000
  0
VERTEX
  8
gto
 10
0.265000
 20
1.539000
  0
VERTEX
  8
gto
 10
0.288000
 20
1.539000
  0
VERTEX
  8
gto
 10
0.296000
 20
1.547000
  0
VERTEX
  8
gto
 10
0.296000
 20
1.555000
  0
VERTEX
  8
gto
 10
0.288000
 20
1.563000
  0
VERTEX
  8
gto
 10
0.265000
 20
1.563000
  0
SEQEND
  8
gto
  0
POLYLINE
  8
gto
 62
1
 40
0.000000
 41
0.000000
 66
  1
  0
VERTEX
  8
gto
 10
0.320000
 20
1.516000
  0
VERTEX
  8
gto
 10
0.336000
 20
1.516000
  0
VERTEX
  8
gto
 10
0.343000
 20
1.524000
  0
VERTEX
  8
gto
 10
0.343000
 20
1.539000
  0
VERTEX
  8
gto
 10
0.336000
 20
1.547000
  0
VERTEX
  8
gto
 10
0.320000
 20
1.547000
  0
VERTEX
  8
gto
 10
0.312000
 20
1.539000
  0
VERTEX
  8
gto
 10
0.312000
 20
1.524000
  0
VERTEX
  8
gto
 10
0.320000
 20
1.516000
  0
SEQEND
  8
gto
  0
POLYLINE
  8
gto
 62
1
 40
0.000000
 41
0.000000
 66
  1
  0
VERTEX
  8
gto
 10
0.367000
 20
1.547000
  0
VERTEX
  8
gto
 10
0.383000
 20
1.547000
  0
VERTEX
  8
gto
 10
0.391000
 20
1.539000
  0
VERTEX
  8
gto
 10
0.391000
 20
1.516000
  0
VERTEX
  8
gto
 10
0.367000
 20
1.516000
  0
VERTEX
  8
gto
 10
0.359000
 20
1.524000
  0
VERTEX
  8
gto
 10
0.367000
 20
1.531000
  0
VERTEX
  8
gto
 10
0.391000
 20
1.531000
  0
SEQEND
  8
gto
  0
POLYLINE
  8
gto
 62
1
 40
0.000000
 41
0.000000
 66
  1
  0
VERTEX
  8
gto
 10
0.406000
 20
1.547000
  0
VERTEX
  8
gto
 10
0.406000
 20
1.516000
  0
VERTEX
  8
gto
 10
0.406000
 20
1.531000
  0
VERTEX
  8
gto
 10
0.414000
 20
1.539000
  0
VERTEX
  8
gto
 10
0.422000
 20
1.547000
  0
VERTEX
  8
gto
 10
0.430000
 20
1.547000
  0
SEQEND
  8
gto
  0
POLYLINE
  8
gto
 62
1
 40
0.000000
 41
0.000000
 66
  1
  0
VERTEX
  8
gto
 10
0.485000
 20
1.563000
  0
VERTEX
  8
gto
 10
0.485000
 20
1.516000
  0
VERTEX
  8
gto
 10
0.462000
 20
1.516000
  0
VERTEX
  8
gto
 10
0.454000
 20
1.524000
  0
VERTEX
  8
gto
 10
0.454000
 20
1.539000
  0
VERTEX
  8
gto
 10
0.462000
 20
1.547000
  0
VERTEX
  8
gto
 10
0.485000
 20
1.547000
  0
SEQEND
  8
gto
  0
POLYLINE
  8
gto
 62
1
 40
0.000000
 41
0.000000
 66
  1
  0
VERTEX
  8
gto
 10
1.004000
 20
0.897000
  0
VERTEX
  8
gto
 10
1.029000
 20
0.922000
  0
SEQEND
  8
gto
  0
POLYLINE
  8
gto
 62
1
 40
0.000000
 41
0.000000
 66
  1
  0
VERTEX
  8
gto
 10
0.979000
 20
0.922000
  0
VERTEX
  8
gto
 10
1.004000
 20
0.947000
  0
VERTEX
  8
gto
 10
1.029000
 20
0.922000
  0
SEQEND
  8
gto
  0
POLYLINE
  8
gto
 62
1
 40
0.000000
 41
0.000000
 66
  1
  0
VERTEX
  8
gto
 10
0.979000
 20
0.922000
  0
VERTEX
  8
gto
 10
1.004000
 20
0.897000
  0
SEQEND
  8
gto
  0
POLYLINE
  8
gto
 62
1
 40
0.000000
 41
0.000000
 66
  1
  0
VERTEX
  8
gto
 10
1.055000
 20
1.517000
  0
VERTEX
  8
gto
 10
1.048000
 20
1.524000
  0
VERTEX
  8
gto
 10
1.035000
 20
1.524000
  0
VERTEX
  8
gto
 10
1.029000
 20
1.517000
  0
VERTEX
  8
gto
 10
1.029000
 20
1.491000
  0
VERTEX
  8
gto
 10
1.035000
 20
1.484000
  0
VERTEX
  8
gto
 10
1.048000
 20
1.484000
  0
VERTEX
  8
gto
 10
1.055000
 20
1.491000
  0
SEQEND
  8
gto
  0
POLYLINE
  8
gto
 62
1
 40
0.000000
 41
0.000000
 66
  1
  0
VERTEX
  8
gto
 10
1.068000
 20
1.484000
  0
VERTEX
  8
gto
 10
1.081000
 20
1.484000
  0
VERTEX
  8
gto
 10
1.075000
 20
1.484000
  0
VERTEX
  8
gto
 10
1.075000
 20
1.524000
  0
VERTEX
  8
gto
 10
1.068000
 20
1.517000
  0
SEQEND
  8
gto
  0
POLYLINE
  8
gto
 62
1
 40
0.000000
 41
0.000000
 66
  1
  0
VERTEX
  8
gto
 10
0.041000
 20
1.181000
  0
VERTEX
  8
gto
 10
0.041000
 20
1.220000
  0
VERTEX
  8
gto
 10
0.061000
 20
1.220000
  0
VERTEX
  8
gto
 10
0.068000
 20
1.214000
  0
VERTEX
  8
gto
 10
0.068000
 20
1.201000
  0
VERTEX
  8
gto
 10
0.061000
 20
1.194000
  0
VERTEX
  8
gto
 10
0.041000
 20
1.194000
  0
SEQEND
  8
gto
  0
POLYLINE
  8
gto
 62
1
 40
0.000000
 41
0.000000
 66
  1
  0
VERTEX
  8
gto
 10
0.081000
 20
1.181000
  0
VERTEX
  8
gto
 10
0.094000
 20
1.181000
  0
VERTEX
  8
gto
 10
0.087000
 20
1.181000
  0
VERTEX
  8
gto
 10
0.087000
 20
1.220000
  0
VERTEX
  8
gto
 10
0.081000
 20
1.214000
  0
SEQEND
  8
gto
  0
POLYLINE
  8
gto
 62
1
 40
0.000000
 41
0.000000
 66
  1
  0
VERTEX
  8
gto
 10
1.014000
 20
0.730000
  0
VERTEX
  8
gto
 10
1.007000
 20
0.736000
  0
VERTEX
  8
gto
 10
0.994000
 20
0.736000
  0
VERTEX
  8
gto
 10
0.987000
 20
0.730000
  0
VERTEX
  8
gto
 10
0.987000
 20
0.703000
  0
VERTEX
  8
gto
 10
0.994000
 20
0.697000
  0
VERTEX
  8
gto
 10
1.007000
 20
0.697000
  0
VERTEX
  8
gto
 10
1.014000
 20
0.703000
  0
SEQEND
  8
gto
  0
POLYLINE
  8
gto
 62
1
 40
0.000000
 41
0.000000
 66
  1
  0
VERTEX
  8
gto
 10
1.046000
 20
0.697000
  0
VERTEX
  8
gto
 10
1.046000
 20
0.736000
  0
VERTEX
  8
gto
 10
1.027000
 20
0.717000
  0
VERTEX
  8
gto
 10
1.053000
 20
0.717000
  0
SEQEND
  8
gto
  0
POLYLINE
  8
gto
 62
1
 40
0.000000
 41
0.000000
 66
  1
  0
VERTEX
  8
gto
 10
1.074000
 20
0.943000
  0
VERTEX
  8
gto
 10
1.074000
 20
0.910000
  0
VERTEX
  8
gto
 10
1.080000
 20
0.904000
  0
VERTEX
  8
gto
 10
1.094000
 20
0.904000
  0
VERTEX
  8
gto
 10
1.100000
 20
0.910000
  0
VERTEX
  8
gto
 10
1.100000
 20
0.943000
  0
SEQEND
  8
gto
  0
POLYLINE
  8
gto
 62
1
 40
0.000000
 41
0.000000
 66
  1
  0
VERTEX
  8
gto
 10
1.113000
 20
0.904000
  0
VERTEX
  8
gto
 10
1.126000
 20
0.904000
  0
VERTEX
  8
gto
 10
1.120000
 20
0.904000
  0
VERTEX
  8
gto
 10
1.120000
 20
0.943000
  0
VERTEX
  8
gto
 10
1.113000
 20
0.936000
  0
SEQEND
  8
gto
  0
POLYLINE
  8
gto
 62
1
 40
0.000000
 41
0.000000
 66
  1
  0
VERTEX
  8
gto
 10
1.229000
 20
1.617000
  0
VERTEX
  8
gto
 10
1.223000
 20
1.624000
  0
VERTEX
  8
gto
 10
1.209000
 20
1.624000
  0
VERTEX
  8
gto
 10
1.203000
 20
1.617000
  0
VERTEX
  8
gto
 10
1.203000
 20
1.591000
  0
VERTEX
  8
gto
 10
1.209000
 20
1.585000
  0
VERTEX
  8
gto
 10
1.223000
 20
1.585000
  0
VERTEX
  8
gto
 10
1.229000
 20
1.591000
  0
SEQEND
  8
gto
  0
POLYLINE
  8
gto
 62
1
 40
0.000000
 41
0.000000
 66
  1
  0
VERTEX
  8
gto
 10
1.268000
 20
1.585000
  0
VERTEX
  8
gto
 10
1.242000
 20
1.585000
  0
VERTEX
  8
gto
 10
1.268000
 20
1.611000
  0
VERTEX
  8
gto
 10
1.268000
 20
1.617000
  0
VERTEX
  8
gto
 10
1.262000
 20
1.624000
  0
VERTEX
  8
gto
 10
1.249000
 20
1.624000
  0
VERTEX
  8
gto
 10
1.242000
 20
1.617000
  0
SEQEND
  8
gto
  0
POLYLINE
  8
gto
 62
1
 40
0.000000
 41
0.000000
 66
  1
  0
VERTEX
  8
gto
 10
1.015000
 20
1.139000
  0
VERTEX
  8
gto
 10
1.009000
 20
1.146000
  0
VERTEX
  8
gto
 10
0.996000
 20
1.146000
  0
VERTEX
  8
gto
 10
0.989000
 20
1.139000
  0
VERTEX
  8
gto
 10
0.989000
 20
1.113000
  0
VERTEX
  8
gto
 10
0.996000
 20
1.106000
  0
VERTEX
  8
gto
 10
1.009000
 20
1.106000
  0
VERTEX
  8
gto
 10
1.015000
 20
1.113000
  0
SEQEND
  8
gto
  0
POLYLINE
  8
gto
 62
1
 40
0.000000
 41
0.000000
 66
  1
  0
VERTEX
  8
gto
 10
1.029000
 20
1.139000
  0
VERTEX
  8
gto
 10
1.035000
 20
1.146000
  0
VERTEX
  8
gto
 10
1.048000
 20
1.146000
  0
VERTEX
  8
gto
 10
1.055000
 20
1.139000
  0
VERTEX
  8
gto
 10
1.055000
 20
1.133000
  0
VERTEX
  8
gto
 10
1.048000
 20
1.126000
  0
VERTEX
  8
gto
 10
1.042000
 20
1.126000
  0
VERTEX
  8
gto
 10
1.048000
 20
1.126000
  0
VERTEX
  8
gto
 10
1.055000
 20
1.119000
  0
VERTEX
  8
gto
 10
1.055000
 20
1.113000
  0
VERTEX
  8
gto
 10
1.048000
 20
1.106000
  0
VERTEX
  8
gto
 10
1.035000
 20
1.106000
  0
VERTEX
  8
gto
 10
1.029000
 20
1.113000
  0
SEQEND
  8
gto
  0
POLYLINE
  8
gto
 62
1
 40
0.000000
 41
0.000000
 66
  1
  0
VERTEX
  8
gto
 10
0.775000
 20
0.972000
  0
VERTEX
  8
gto
 10
0.775000
 20
1.012000
  0
VERTEX
  8
gto
 10
0.794000
 20
1.012000
  0
VERTEX
  8
gto
 10
0.801000
 20
1.005000
  0
VERTEX
  8
gto
 10
0.801000
 20
0.992000
  0
VERTEX
  8
gto
 10
0.794000
 20
0.986000
  0
VERTEX
  8
gto
 10
0.775000
 20
0.986000
  0
SEQEND
  8
gto
  0
POLYLINE
  8
gto
 62
1
 40
0.000000
 41
0.000000
 66
  1
  0
VERTEX
  8
gto
 10
0.788000
 20
0.986000
  0
VERTEX
  8
gto
 10
0.801000
 20
0.972000
  0
SEQEND
  8
gto
  0
POLYLINE
  8
gto
 62
1
 40
0.000000
 41
0.000000
 66
  1
  0
VERTEX
  8
gto
 10
0.814000
 20
0.972000
  0
VERTEX
  8
gto
 10
0.827000
 20
0.972000
  0
VERTEX
  8
gto
 10
0.821000
 20
0.972000
  0
VERTEX
  8
gto
 10
0.821000
 20
1.012000
  0
VERTEX
  8
gto
 10
0.814000
 20
1.005000
  0
SEQEND
  8
gto
  0
POLYLINE
  8
gto
 62
1
 40
0.000000
 41
0.000000
 66
  1
  0
VERTEX
  8
gto
 10
0.711000
 20
1.005000
  0
VERTEX
  8
gto
 10
0.705000
 20
1.012000
  0
VERTEX
  8
gto
 10
0.692000
 20
1.012000
  0
VERTEX
  8
gto
 10
0.685000
 20
1.005000
  0
VERTEX
  8
gto
 10
0.685000
 20
0.979000
  0
VERTEX
  8
gto
 10
0.692000
 20
0.972000
  0
VERTEX
  8
gto
 10
0.705000
 20
0.972000
  0
VERTEX
  8
gto
 10
0.711000
 20
0.979000
  0
SEQEND
  8
gto
  0
POLYLINE
  8
gto
 62
1
 40
0.000000
 41
0.000000
 66
  1
  0
VERTEX
  8
gto
 10
0.751000
 20
1.012000
  0
VERTEX
  8
gto
 10
0.738000
 20
1.005000
  0
VERTEX
  8
gto
 10
0.724000
 20
0.992000
  0
VERTEX
  8
gto
 10
0.724000
 20
0.979000
  0
VERTEX
  8
gto
 10
0.731000
 20
0.972000
  0
VERTEX
  8
gto
 10
0.744000
 20
0.972000
  0
VERTEX
  8
gto
 10
0.751000
 20
0.979000
  0
VERTEX
  8
gto
 10
0.751000
 20
0.986000
  0
VERTEX
  8
gto
 10
0.744000
 20
0.992000
  0
VERTEX
  8
gto
 10
0.724000
 20
0.992000
  0
SEQEND
  8
gto
  0
POLYLINE
  8
gto
 62
1
 40
0.000000
 41
0.000000
 66
  1
  0
VERTEX
  8
gto
 10
0.708000
 20
0.544000
  0
VERTEX
  8
gto
 10
0.695000
 20
0.544000
  0
VERTEX
  8
gto
 10
0.702000
 20
0.544000
  0
VERTEX
  8
gto
 10
0.702000
 20
0.511000
  0
VERTEX
  8
gto
 10
0.695000
 20
0.505000
  0
VERTEX
  8
gto
 10
0.689000
 20
0.505000
  0
VERTEX
  8
gto
 10
0.682000
 20
0.511000
  0
SEQEND
  8
gto
  0
POLYLINE
  8
gto
 62
1
 40
0.000000
 41
0.000000
 66
  1
  0
VERTEX
  8
gto
 10
0.721000
 20
0.505000
  0
VERTEX
  8
gto
 10
0.735000
 20
0.505000
  0
VERTEX
  8
gto
 10
0.728000
 20
0.505000
  0
VERTEX
  8
gto
 10
0.728000
 20
0.544000
  0
VERTEX
  8
gto
 10
0.721000
 20
0.538000
  0
SEQEND
  8
gto
  0
POLYLINE
  8
gto
 62
1
 40
0.000000
 41
0.000000
 66
  1
  0
VERTEX
  8
gto
 10
0.589000
 20
0.138000
  0
VERTEX
  8
gto
 10
0.582000
 20
0.145000
  0
VERTEX
  8
gto
 10
0.569000
 20
0.145000
  0
VERTEX
  8
gto
 10
0.563000
 20
0.138000
  0
VERTEX
  8
gto
 10
0.563000
 20
0.112000
  0
VERTEX
  8
gto
 10
0.569000
 20
0.106000
  0
VERTEX
  8
gto
 10
0.582000
 20
0.106000
  0
VERTEX
  8
gto
 10
0.589000
 20
0.112000
  0
SEQEND
  8
gto
  0
POLYLINE
  8
gto
 62
1
 40
0.000000
 41
0.000000
 66
  1
  0
VERTEX
  8
gto
 10
0.628000
 20
0.145000
  0
VERTEX
  8
gto
 10
0.602000
 20
0.145000
  0
VERTEX
  8
gto
 10
0.602000
 20
0.125000
  0
VERTEX
  8
gto
 10
0.615000
 20
0.132000
  0
VERTEX
  8
gto
 10
0.622000
 20
0.132000
  0
VERTEX
  8
gto
 10
0.628000
 20
0.125000
  0
VERTEX
  8
gto
 10
0.628000
 20
0.112000
  0
VERTEX
  8
gto
 10
0.622000
 20
0.106000
  0
VERTEX
  8
gto
 10
0.609000
 20
0.106000
  0
VERTEX
  8
gto
 10
0.602000
 20
0.112000
  0
SEQEND
  8
gto
  0
POLYLINE
  8
gto
 62
1
 40
0.000000
 41
0.000000
 66
  1
  0
VERTEX
  8
gto
 10
0.802000
 20
0.486000
  0
VERTEX
  8
gto
 10
0.811000
 20
0.486000
  0
VERTEX
  8
gto
 10
0.807000
 20
0.486000
  0
VERTEX
  8
gto
 10
0.807000
 20
0.514000
  0
VERTEX
  8
gto
 10
0.802000
 20
0.509000
  0
SEQEND
  8
gto
  0
POLYLINE
  8
gto
 62
1
 40
0.000000
 41
0.000000
 66
  1
  0
VERTEX
  8
gto
 10
0.971000
 20
0.901000
  0
VERTEX
  8
gto
 10
0.964000
 20
0.906000
  0
VERTEX
  8
gto
 10
0.964000
 20
0.897000
  0
VERTEX
  8
gto
 10
0.971000
 20
0.901000
  0
SEQEND
  8
gto
  0
POLYLINE
  8
gto
 62
1
 40
0.000000
 41
0.000000
 66
  1
  0
VERTEX
  8
gto
 10
0.833000
 20
0.827000
  0
VERTEX
  8
gto
 10
0.833000
 20
0.855000
  0
SEQEND
  8
gto
  0
POLYLINE
  8
gto
 62
1
 40
0.000000
 41
0.000000
 66
  1
  0
VERTEX
  8
gto
 10
0.773000
 20
0.826000
  0
VERTEX
  8
gto
 10
0.833000
 20
0.826000
  0
SEQEND
  8
gto
  0
POLYLINE
  8
gto
 62
1
 40
0.000000
 41
0.000000
 66
  1
  0
VERTEX
  8
gto
 10
0.773000
 20
0.826000
  0
VERTEX
  8
gto
 10
0.773000
 20
0.855000
  0
SEQEND
  8
gto
  0
POLYLINE
  8
gto
 62
1
 40
0.000000
 41
0.000000
 66
  1
  0
VERTEX
  8
gto
 10
0.833000
 20
0.923000
  0
VERTEX
  8
gto
 10
0.833000
 20
0.951000
  0
SEQEND
  8
gto
  0
POLYLINE
  8
gto
 62
1
 40
0.000000
 41
0.000000
 66
  1
  0
VERTEX
  8
gto
 10
0.773000
 20
0.951000
  0
VERTEX
  8
gto
 10
0.833000
 20
0.951000
  0
SEQEND
  8
gto
  0
POLYLINE
  8
gto
 62
1
 40
0.000000
 41
0.000000
 66
  1
  0
VERTEX
  8
gto
 10
0.773000
 20
0.923000
  0
VERTEX
  8
gto
 10
0.773000
 20
0.951000
  0
SEQEND
  8
gto
  0
POLYLINE
  8
gto
 62
1
 40
0.000000
 41
0.000000
 66
  1
  0
VERTEX
  8
gto
 10
1.044000
 20
0.960000
  0
VERTEX
  8
gto
 10
1.044000
 20
0.988000
  0
SEQEND
  8
gto
  0
POLYLINE
  8
gto
 62
1
 40
0.000000
 41
0.000000
 66
  1
  0
VERTEX
  8
gto
 10
0.984000
 20
0.959000
  0
VERTEX
  8
gto
 10
1.044000
 20
0.959000
  0
SEQEND
  8
gto
  0
POLYLINE
  8
gto
 62
1
 40
0.000000
 41
0.000000
 66
  1
  0
VERTEX
  8
gto
 10
0.984000
 20
0.959000
  0
VERTEX
  8
gto
 10
0.984000
 20
0.988000
  0
SEQEND
  8
gto
  0
POLYLINE
  8
gto
 62
1
 40
0.000000
 41
0.000000
 66
  1
  0
VERTEX
  8
gto
 10
1.044000
 20
1.056000
  0
VERTEX
  8
gto
 10
1.044000
 20
1.084000
  0
SEQEND
  8
gto
  0
POLYLINE
  8
gto
 62
1
 40
0.000000
 41
0.000000
 66
  1
  0
VERTEX
  8
gto
 10
0.984000
 20
1.084000
  0
VERTEX
  8
gto
 10
1.044000
 20
1.084000
  0
SEQEND
  8
gto
  0
POLYLINE
  8
gto
 62
1
 40
0.000000
 41
0.000000
 66
  1
  0
VERTEX
  8
gto
 10
0.984000
 20
1.056000
  0
VERTEX
  8
gto
 10
0.984000
 20
1.084000
  0
SEQEND
  8
gto
  0
POLYLINE
  8
gto
 62
1
 40
0.000000
 41
0.000000
 66
  1
  0
VERTEX
  8
gto
 10
1.266000
 20
1.563000
  0
VERTEX
  8
gto
 10
1.294000
 20
1.563000
  0
SEQEND
  8
gto
  0
POLYLINE
  8
gto
 62
1
 40
0.000000
 41
0.000000
 66
  1
  0
VERTEX
  8
gto
 10
1.295000
 20
1.502000
  0
VERTEX
  8
gto
 10
1.295000
 20
1.562000
  0
SEQEND
  8
gto
  0
POLYLINE
  8
gto
 62
1
 40
0.000000
 41
0.000000
 66
  1
  0
VERTEX
  8
gto
 10
1.266000
 20
1.502000
  0
VERTEX
  8
gto
 10
1.295000
 20
1.502000
  0
SEQEND
  8
gto
  0
POLYLINE
  8
gto
 62
1
 40
0.000000
 41
0.000000
 66
  1
  0
VERTEX
  8
gto
 10
1.170000
 20
1.563000
  0
VERTEX
  8
gto
 10
1.198000
 20
1.563000
  0
SEQEND
  8
gto
  0
POLYLINE
  8
gto
 62
1
 40
0.000000
 41
0.000000
 66
  1
  0
VERTEX
  8
gto
 10
1.170000
 20
1.502000
  0
VERTEX
  8
gto
 10
1.170000
 20
1.563000
  0
SEQEND
  8
gto
  0
POLYLINE
  8
gto
 62
1
 40
0.000000
 41
0.000000
 66
  1
  0
VERTEX
  8
gto
 10
1.170000
 20
1.502000
  0
VERTEX
  8
gto
 10
1.198000
 20
1.502000
  0
SEQEND
  8
gto
  0
POLYLINE
  8
gto
 62
1
 40
0.000000
 41
0.000000
 66
  1
  0
VERTEX
  8
gto
 10
1.044000
 20
0.762000
  0
VERTEX
  8
gto
 10
1.044000
 20
0.790000
  0
SEQEND
  8
gto
  0
POLYLINE
  8
gto
 62
1
 40
0.000000
 41
0.000000
 66
  1
  0
VERTEX
  8
gto
 10
0.984000
 20
0.761000
  0
VERTEX
  8
gto
 10
1.044000
 20
0.761000
  0
SEQEND
  8
gto
  0
POLYLINE
  8
gto
 62
1
 40
0.000000
 41
0.000000
 66
  1
  0
VERTEX
  8
gto
 10
0.984000
 20
0.761000
  0
VERTEX
  8
gto
 10
0.984000
 20
0.790000
  0
SEQEND
  8
gto
  0
POLYLINE
  8
gto
 62
1
 40
0.000000
 41
0.000000
 66
  1
  0
VERTEX
  8
gto
 10
1.044000
 20
0.858000
  0
VERTEX
  8
gto
 10
1.044000
 20
0.886000
  0
SEQEND
  8
gto
  0
POLYLINE
  8
gto
 62
1
 40
0.000000
 41
0.000000
 66
  1
  0
VERTEX
  8
gto
 10
0.984000
 20
0.886000
  0
VERTEX
  8
gto
 10
1.044000
 20
0.886000
  0
SEQEND
  8
gto
  0
POLYLINE
  8
gto
 62
1
 40
0.000000
 41
0.000000
 66
  1
  0
VERTEX
  8
gto
 10
0.984000
 20
0.858000
  0
VERTEX
  8
gto
 10
0.984000
 20
0.886000
  0
SEQEND
  8
gto
  0
POLYLINE
  8
gto
 62
1
 40
0.000000
 41
0.000000
 66
  1
  0
VERTEX
  8
gto
 10
0.648000
 20
0.890000
  0
VERTEX
  8
gto
 10
0.676000
 20
0.890000
  0
SEQEND
  8
gto
  0
POLYLINE
  8
gto
 62
1
 40
0.000000
 41
0.000000
 66
  1
  0
VERTEX
  8
gto
 10
0.647000
 20
0.890000
  0
VERTEX
  8
gto
 10
0.647000
 20
0.951000
  0
VERTEX
  8
gto
 10
0.676000
 20
0.951000
  0
SEQEND
  8
gto
  0
POLYLINE
  8
gto
 62
1
 40
0.000000
 41
0.000000
 66
  1
  0
VERTEX
  8
gto
 10
0.744000
 20
0.890000
  0
VERTEX
  8
gto
 10
0.772000
 20
0.890000
  0
VERTEX
  8
gto
 10
0.772000
 20
0.950000
  0
SEQEND
  8
gto
  0
POLYLINE
  8
gto
 62
1
 40
0.000000
 41
0.000000
 66
  1
  0
VERTEX
  8
gto
 10
0.744000
 20
0.950000
  0
VERTEX
  8
gto
 10
0.772000
 20
0.950000
  0
SEQEND
  8
gto
  0
POLYLINE
  8
gto
 62
1
 40
0.000000
 41
0.000000
 66
  1
  0
VERTEX
  8
gto
 10
1.194000
 20
1.362000
  0
VERTEX
  8
gto
 10
1.210000
 20
1.362000
  0
SEQEND
  8
gto
  0
POLYLINE
  8
gto
 62
1
 40
0.000000
 41
0.000000
 66
  1
  0
VERTEX
  8
gto
 10
1.194000
 20
1.472000
  0
VERTEX
  8
gto
 10
1.210000
 20
1.472000
  0
SEQEND
  8
gto
  0
POLYLINE
  8
gto
 62
1
 40
0.000000
 41
0.000000
 66
  1
  0
VERTEX
  8
gto
 10
1.210000
 20
1.362000
  0
VERTEX
  8
gto
 10
1.210000
 20
1.472000
  0
SEQEND
  8
gto
  0
POLYLINE
  8
gto
 62
1
 40
0.000000
 41
0.000000
 66
  1
  0
VERTEX
  8
gto
 10
0.277000
 20
0.920000
  0
VERTEX
  8
gto
 10
0.277000
 20
1.155000
  0
SEQEND
  8
gto
  0
POLYLINE
  8
gto
 62
1
 40
0.000000
 41
0.000000
 66
  1
  0
VERTEX
  8
gto
 10
0.007000
 20
1.155000
  0
VERTEX
  8
gto
 10
0.277000
 20
1.155000
  0
SEQEND
  8
gto
  0
POLYLINE
  8
gto
 62
1
 40
0.000000
 41
0.000000
 66
  1
  0
VERTEX
  8
gto
 10
0.007000
 20
0.685000
  0
VERTEX
  8
gto
 10
0.277000
 20
0.685000
  0
VERTEX
  8
gto
 10
0.277000
 20
0.920000
  0
SEQEND
  8
gto
  0
POLYLINE
  8
gto
 62
1
 40
0.000000
 41
0.000000
 66
  1
  0
VERTEX
  8
gto
 10
0.747000
 20
0.157000
  0
VERTEX
  8
gto
 10
0.775000
 20
0.157000
  0
SEQEND
  8
gto
  0
POLYLINE
  8
gto
 62
1
 40
0.000000
 41
0.000000
 66
  1
  0
VERTEX
  8
gto
 10
0.776000
 20
0.096000
  0
VERTEX
  8
gto
 10
0.776000
 20
0.156000
  0
SEQEND
  8
gto
  0
POLYLINE
  8
gto
 62
1
 40
0.000000
 41
0.000000
 66
  1
  0
VERTEX
  8
gto
 10
0.747000
 20
0.096000
  0
VERTEX
  8
gto
 10
0.776000
 20
0.096000
  0
SEQEND
  8
gto
  0
POLYLINE
  8
gto
 62
1
 40
0.000000
 41
0.000000
 66
  1
  0
VERTEX
  8
gto
 10
0.651000
 20
0.157000
  0
VERTEX
  8
gto
 10
0.679000
 20
0.157000
  0
SEQEND
  8
gto
  0
POLYLINE
  8
gto
 62
1
 40
0.000000
 41
0.000000
 66
  1
  0
VERTEX
  8
gto
 10
0.651000
 20
0.096000
  0
VERTEX
  8
gto
 10
0.651000
 20
0.157000
  0
SEQEND
  8
gto
  0
POLYLINE
  8
gto
 62
1
 40
0.000000
 41
0.000000
 66
  1
  0
VERTEX
  8
gto
 10
0.651000
 20
0.096000
  0
VERTEX
  8
gto
 10
0.679000
 20
0.096000
  0
SEQEND
  8
gto
  0
POLYLINE
  8
gto
 62
1
 40
0.000000
 41
0.000000
 66
  1
  0
VERTEX
  8
gto
 10
0.993000
 20
0.908000
  0
VERTEX
  8
gto
 10
1.007000
 20
0.922000
  0
SEQEND
  8
gto
  0
POLYLINE
  8
gto
 62
1
 40
0.000000
 41
0.000000
 66
  1
  0
VERTEX
  8
gto
 10
0.993000
 20
0.936000
  0
VERTEX
  8
gto
 10
1.007000
 20
0.922000
  0
SEQEND
  8
gto
  0
POLYLINE
  8
gto
 62
1
 40
0.000000
 41
0.000000
 66
  1
  0
VERTEX
  8
gto
 10
1.289000
 20
1.870000
  0
VERTEX
  8
gto
 10
1.289000
 20
1.831000
  0
VERTEX
  8
gto
 10
1.309000
 20
1.811000
  0
VERTEX
  8
gto
 10
1.329000
 20
1.831000
  0
VERTEX
  8
gto
 10
1.329000
 20
1.870000
  0
SEQEND
  8
gto
  0
POLYLINE
  8
gto
 62
1
 40
0.000000
 41
0.000000
 66
  1
  0
VERTEX
  8
gto
 10
1.348000
 20
1.870000
  0
VERTEX
  8
gto
 10
1.348000
 20
1.811000
  0
VERTEX
  8
gto
 10
1.378000
 20
1.811000
  0
VERTEX
  8
gto
 10
1.388000
 20
1.821000
  0
VERTEX
  8
gto
 10
1.388000
 20
1.860000
  0
VERTEX
  8
gto
 10
1.378000
 20
1.870000
  0
VERTEX
  8
gto
 10
1.348000
 20
1.870000
  0
SEQEND
  8
gto
  0
POLYLINE
  8
gto
 62
1
 40
0.000000
 41
0.000000
 66
  1
  0
VERTEX
  8
gto
 10
1.408000
 20
1.870000
  0
VERTEX
  8
gto
 10
1.408000
 20
1.811000
  0
VERTEX
  8
gto
 10
1.437000
 20
1.811000
  0
VERTEX
  8
gto
 10
1.447000
 20
1.821000
  0
VERTEX
  8
gto
 10
1.447000
 20
1.860000
  0
VERTEX
  8
gto
 10
1.437000
 20
1.870000
  0
VERTEX
  8
gto
 10
1.408000
 20
1.870000
  0
SEQEND
  8
gto
  0
POLYLINE
  8
gto
 62
1
 40
0.000000
 41
0.000000
 66
  1
  0
VERTEX
  8
gto
 10
1.648000
 20
1.247000
  0
VERTEX
  8
gto
 10
1.628000
 20
1.247000
  0
VERTEX
  8
gto
 10
1.618000
 20
1.237000
  0
VERTEX
  8
gto
 10
1.618000
 20
1.198000
  0
VERTEX
  8
gto
 10
1.628000
 20
1.188000
  0
VERTEX
  8
gto
 10
1.648000
 20
1.188000
  0
VERTEX
  8
gto
 10
1.658000
 20
1.198000
  0
VERTEX
  8
gto
 10
1.658000
 20
1.237000
  0
VERTEX
  8
gto
 10
1.648000
 20
1.247000
  0
SEQEND
  8
gto
  0
POLYLINE
  8
gto
 62
1
 40
0.000000
 41
0.000000
 66
  1
  0
VERTEX
  8
gto
 10
1.677000
 20
1.247000
  0
VERTEX
  8
gto
 10
1.677000
 20
1.198000
  0
VERTEX
  8
gto
 10
1.687000
 20
1.188000
  0
VERTEX
  8
gto
 10
1.707000
 20
1.188000
  0
VERTEX
  8
gto
 10
1.717000
 20
1.198000
  0
VERTEX
  8
gto
 10
1.717000
 20
1.247000
  0
SEQEND
  8
gto
  0
POLYLINE
  8
gto
 62
1
 40
0.000000
 41
0.000000
 66
  1
  0
VERTEX
  8
gto
 10
1.736000
 20
1.247000
  0
VERTEX
  8
gto
 10
1.776000
 20
1.247000
  0
VERTEX
  8
gto
 10
1.756000
 20
1.247000
  0
VERTEX
  8
gto
 10
1.756000
 20
1.188000
  0
SEQEND
  8
gto
  0
POLYLINE
  8
gto
 62
1
 40
0.000000
 41
0.000000
 66
  1
  0
VERTEX
  8
gto
 10
0.633000
 20
1.861000
  0
VERTEX
  8
gto
 10
0.623000
 20
1.871000
  0
VERTEX
  8
gto
 10
0.603000
 20
1.871000
  0
VERTEX
  8
gto
 10
0.594000
 20
1.861000
  0
VERTEX
  8
gto
 10
0.594000
 20
1.822000
  0
VERTEX
  8
gto
 10
0.603000
 20
1.812000
  0
VERTEX
  8
gto
 10
0.623000
 20
1.812000
  0
VERTEX
  8
gto
 10
0.633000
 20
1.822000
  0
VERTEX
  8
gto
 10
0.633000
 20
1.841000
  0
VERTEX
  8
gto
 10
0.613000
 20
1.841000
  0
SEQEND
  8
gto
  0
POLYLINE
  8
gto
 62
1
 40
0.000000
 41
0.000000
 66
  1
  0
VERTEX
  8
gto
 10
0.653000
 20
1.812000
  0
VERTEX
  8
gto
 10
0.653000
 20
1.871000
  0
VERTEX
  8
gto
 10
0.692000
 20
1.812000
  0
VERTEX
  8
gto
 10
0.692000
 20
1.871000
  0
SEQEND
  8
gto
  0
POLYLINE
  8
gto
 62
1
 40
0.000000
 41
0.000000
 66
  1
  0
VERTEX
  8
gto
 10
0.712000
 20
1.871000
  0
VERTEX
  8
gto
 10
0.712000
 20
1.812000
  0
VERTEX
  8
gto
 10
0.741000
 20
1.812000
  0
VERTEX
  8
gto
 10
0.751000
 20
1.822000
  0
VERTEX
  8
gto
 10
0.751000
 20
1.861000
  0
VERTEX
  8
gto
 10
0.741000
 20
1.871000
  0
VERTEX
  8
gto
 10
0.712000
 20
1.871000
  0
SEQEND
  8
gto
  0
POLYLINE
  8
gto
 62
1
 40
0.000000
 41
0.000000
 66
  1
  0
VERTEX
  8
gto
 10
0.433000
 20
0.454000
  0
VERTEX
  8
gto
 10
0.433000
 20
0.416000
  0
VERTEX
  8
gto
 10
0.452000
 20
0.398000
  0
VERTEX
  8
gto
 10
0.471000
 20
0.416000
  0
VERTEX
  8
gto
 10
0.471000
 20
0.454000
  0
SEQEND
  8
gto
  0
POLYLINE
  8
gto
 62
1
 40
0.000000
 41
0.000000
 66
  1
  0
VERTEX
  8
gto
 10
0.489000
 20
0.454000
  0
VERTEX
  8
gto
 10
0.489000
 20
0.398000
  0
VERTEX
  8
gto
 10
0.517000
 20
0.398000
  0
VERTEX
  8
gto
 10
0.527000
 20
0.407000
  0
VERTEX
  8
gto
 10
0.527000
 20
0.444000
  0
VERTEX
  8
gto
 10
0.517000
 20
0.454000
  0
VERTEX
  8
gto
 10
0.489000
 20
0.454000
  0
SEQEND
  8
gto
  0
POLYLINE
  8
gto
 62
1
 40
0.000000
 41
0.000000
 66
  1
  0
VERTEX
  8
gto
 10
0.546000
 20
0.454000
  0
VERTEX
  8
gto
 10
0.546000
 20
0.398000
  0
VERTEX
  8
gto
 10
0.574000
 20
0.398000
  0
VERTEX
  8
gto
 10
0.583000
 20
0.407000
  0
VERTEX
  8
gto
 10
0.583000
 20
0.444000
  0
VERTEX
  8
gto
 10
0.574000
 20
0.454000
  0
VERTEX
  8
gto
 10
0.546000
 20
0.454000
  0
SEQEND
  8
gto
  0
POLYLINE
  8
gto
 62
1
 40
0.000000
 41
0.000000
 66
  1
  0
VERTEX
  8
gto
 10
0.527000
 20
0.349000
  0
VERTEX
  8
gto
 10
0.489000
 20
0.349000
  0
VERTEX
  8
gto
 10
0.489000
 20
0.292000
  0
VERTEX
  8
gto
 10
0.527000
 20
0.292000
  0
SEQEND
  8
gto
  0
POLYLINE
  8
gto
 62
1
 40
0.000000
 41
0.000000
 66
  1
  0
VERTEX
  8
gto
 10
0.489000
 20
0.320000
  0
VERTEX
  8
gto
 10
0.508000
 20
0.320000
  0
SEQEND
  8
gto
  0
POLYLINE
  8
gto
 62
1
 40
0.000000
 41
0.000000
 66
  1
  0
VERTEX
  8
gto
 10
0.546000
 20
0.292000
  0
VERTEX
  8
gto
 10
0.546000
 20
0.349000
  0
VERTEX
  8
gto
 10
0.583000
 20
0.292000
  0
VERTEX
  8
gto
 10
0.583000
 20
0.349000
  0
SEQEND
  8
gto
  0
POLYLINE
  8
gto
 62
1
 40
0.000000
 41
0.000000
 66
  1
  0
VERTEX
  8
gto
 10
0.471000
 20
0.239000
  0
VERTEX
  8
gto
 10
0.461000
 20
0.248000
  0
VERTEX
  8
gto
 10
0.443000
 20
0.248000
  0
VERTEX
  8
gto
 10
0.433000
 20
0.239000
  0
VERTEX
  8
gto
 10
0.433000
 20
0.201000
  0
VERTEX
  8
gto
 10
0.443000
 20
0.192000
  0
VERTEX
  8
gto
 10
0.461000
 20
0.192000
  0
VERTEX
  8
gto
 10
0.471000
 20
0.201000
  0
VERTEX
  8
gto
 10
0.471000
 20
0.220000
  0
VERTEX
  8
gto
 10
0.452000
 20
0.220000
  0
SEQEND
  8
gto
  0
POLYLINE
  8
gto
 62
1
 40
0.000000
 41
0.000000
 66
  1
  0
VERTEX
  8
gto
 10
0.489000
 20
0.192000
  0
VERTEX
  8
gto
 10
0.489000
 20
0.248000
  0
VERTEX
  8
gto
 10
0.527000
 20
0.192000
  0
VERTEX
  8
gto
 10
0.527000
 20
0.248000
  0
SEQEND
  8
gto
  0
POLYLINE
  8
gto
 62
1
 40
0.000000
 41
0.000000
 66
  1
  0
VERTEX
  8
gto
 10
0.546000
 20
0.248000
  0
VERTEX
  8
gto
 10
0.546000
 20
0.192000
  0
VERTEX
  8
gto
 10
0.574000
 20
0.192000
  0
VERTEX
  8
gto
 10
0.583000
 20
0.201000
  0
VERTEX
  8
gto
 10
0.583000
 20
0.239000
  0
VERTEX
  8
gto
 10
0.574000
 20
0.248000
  0
VERTEX
  8
gto
 10
0.546000
 20
0.248000
  0
SEQEND
  8
gto
  0
POLYLINE
  8
gto
 62
1
 40
0.000000
 41
0.000000
 66
  1
  0
VERTEX
  8
gto
 10
0.939000
 20
0.626000
  0
VERTEX
  8
gto
 10
0.900000
 20
0.626000
  0
VERTEX
  8
gto
 10
0.900000
 20
0.567000
  0
VERTEX
  8
gto
 10
0.939000
 20
0.567000
  0
SEQEND
  8
gto
  0
POLYLINE
  8
gto
 62
1
 40
0.000000
 41
0.000000
 66
  1
  0
VERTEX
  8
gto
 10
0.900000
 20
0.596000
  0
VERTEX
  8
gto
 10
0.919000
 20
0.596000
  0
SEQEND
  8
gto
  0
POLYLINE
  8
gto
 62
1
 40
0.000000
 41
0.000000
 66
  1
  0
VERTEX
  8
gto
 10
0.959000
 20
0.567000
  0
VERTEX
  8
gto
 10
0.959000
 20
0.626000
  0
VERTEX
  8
gto
 10
0.998000
 20
0.567000
  0
VERTEX
  8
gto
 10
0.998000
 20
0.626000
  0
SEQEND
  8
gto
  0
POLYLINE
  8
gto
 62
1
 40
0.000000
 41
0.000000
 66
  1
  0
VERTEX
  8
gto
 10
1.018000
 20
0.567000
  0
VERTEX
  8
gto
 10
1.018000
 20
0.606000
  0
VERTEX
  8
gto
 10
1.037000
 20
0.626000
  0
VERTEX
  8
gto
 10
1.057000
 20
0.606000
  0
VERTEX
  8
gto
 10
1.057000
 20
0.567000
  0
VERTEX
  8
gto
 10
1.057000
 20
0.596000
  0
VERTEX
  8
gto
 10
1.018000
 20
0.596000
  0
SEQEND
  8
gto
  0
POLYLINE
  8
gto
 62
1
 40
0.000000
 41
0.000000
 66
  1
  0
VERTEX
  8
gto
 10
1.077000
 20
0.626000
  0
VERTEX
  8
gto
 10
1.077000
 20
0.567000
  0
VERTEX
  8
gto
 10
1.106000
 20
0.567000
  0
VERTEX
  8
gto
 10
1.116000
 20
0.577000
  0
VERTEX
  8
gto
 10
1.116000
 20
0.587000
  0
VERTEX
  8
gto
 10
1.106000
 20
0.596000
  0
VERTEX
  8
gto
 10
1.077000
 20
0.596000
  0
VERTEX
  8
gto
 10
1.106000
 20
0.596000
  0
VERTEX
  8
gto
 10
1.116000
 20
0.606000
  0
VERTEX
  8
gto
 10
1.116000
 20
0.616000
  0
VERTEX
  8
gto
 10
1.106000
 20
0.626000
  0
VERTEX
  8
gto
 10
1.077000
 20
0.626000
  0
SEQEND
  8
gto
  0
POLYLINE
  8
gto
 62
1
 40
0.000000
 41
0.000000
 66
  1
  0
VERTEX
  8
gto
 10
1.136000
 20
0.626000
  0
VERTEX
  8
gto
 10
1.136000
 20
0.567000
  0
VERTEX
  8
gto
 10
1.175000
 20
0.567000
  0
SEQEND
  8
gto
  0
POLYLINE
  8
gto
 62
1
 40
0.000000
 41
0.000000
 66
  1
  0
VERTEX
  8
gto
 10
1.234000
 20
0.626000
  0
VERTEX
  8
gto
 10
1.195000
 20
0.626000
  0
VERTEX
  8
gto
 10
1.195000
 20
0.567000
  0
VERTEX
  8
gto
 10
1.234000
 20
0.567000
  0
SEQEND
  8
gto
  0
POLYLINE
  8
gto
 62
1
 40
0.000000
 41
0.000000
 66
  1
  0
VERTEX
  8
gto
 10
1.195000
 20
0.596000
  0
VERTEX
  8
gto
 10
1.215000
 20
0.596000
  0
SEQEND
  8
gto
  0
ENDSEC
  0
EOF
